tablaturas, partituras y acordes para guitarra
Busca por banda/artista:
 
y/o título de la canción:
A B C D E F G H I J K L M N O P Q R S T U V W X Y Z 0 1 2 3 4 5 6 7 8 9 / Top 100 tabs
Categorías
Usuarios
usuario:
Darse de alta
password:
Artistas más visitados
Publicidad
TOP acordes y tablaturas de Pasteles Verdes


Estás en: Inicio > Letra P > Acordes y tablaturas de Pasteles Verdes > Mi amor imposible
Mi amor imposible
de Pasteles Verdes
Puntúa este acorde/tab:      
(0.7/5)
Reportar este acorde/tab
  Añadir a tus favoritos
  Imprimir
E ----------12-10-8-7-8-12---8-10-8-10-8-8-7----7-11--
B --------8----------------------------------10-------
G ------9---------------------------------------------
D ----9-----------------------------------------------
A --7-------------------------------------------------
E ----------------------------------------------------

E --7-8-7-8-7-7---------11--------------7-------------
B---------------10-9-10------8-10-8-7-8---------------
G ----------------------------------------------------
D ----------------------------------------------------
A ----------------------------------------------------
E ----------------------------------------------------

E ----------12-10-8-7-8-12---8-10-8-10-8-8-7----7-11--
B --------8----------------------------------10-------
G ------9---------------------------------------------
D ----9-----------------------------------------------
A --7-------------------------------------------------
E ----------------------------------------------------

E --7-8-7-8-7-7---------11----------------------------
B---------------10-9-10------8-10-8-7-8---------------
G --------------------------------------9-------------
D ----------------------------------------------------
A ----------------------------------------------------
E ----------------------------------------------------
		   
AcordesyTabs.com © 2008 Acordes y Tablaturas para guitarra. Tabs and Chords for guitar. Aviso Legal - Contacto
El uso de este sitio está sujeto a la aceptación de los términos y condiciones (32 usuarios online)