tablaturas, partituras y acordes para guitarra
Busca por banda/artista:
 
y/o título de la canción:
A B C D E F G H I J K L M N O P Q R S T U V W X Y Z 0 1 2 3 4 5 6 7 8 9 / Top 100 tabs
Categorías
Usuarios
usuario:
Darse de alta
password:
Artistas más visitados
Publicidad
TOP acordes y tablaturas de Bersuit Vergarabat


Mi caramelo
de Bersuit Vergarabat
Puntúa este acorde/tab:      
(0.4/5)
Reportar este acorde/tab
  Añadir a tus favoritos
  Imprimir
VERSIÓN 'DE LA CABEZA' 2002

INTRODUCCIÓN

e|-0---------------|-------------0---|-0---------------|-------------3---|>
B|---3-1-0-3-----3-|-2---2---1-------|---3-1-0-3-----3-|-2-----2-1-----1-|>
G|*------------0---|---0---0---0---0*|-------------0---|-----0-----0-----|>
D|*----------0-----|-1--------------*|-----------0-----|-1-1-------------|>
A|-3-2-0---2-------|---------0-------|-3-2-0---2-------|---------0-------|>
E|-------3---------|-----------------|-------3---------|-----------------|>
   1 + 2 + 3 + 4 +   1 + 2 + 3 + 4 +   1 + 2 + 3 + 4 +   1 + 2 + 3 + 4 + 


e|-3---3---3---3---|-2---------------||
B|---1---1-------1-|-----1-----------||
G|-----------2-----|---2-------------||
D|---------0-------|-0---------------||
A|(0)--------------|-----------------||
E|-----------------|-----------------||
   1 + 2 + 3 + 4 +   1 + 2 + 3 + 4 +



ESTROFA 1

e|-----------------|-----------------|-----------------|-----3---3---2---|>
B|-----0-------0---|-----0-------0---|-------0-2-----2-|-1-----1---------|>
G|---0---0---0---0-|---0---0---0---0-|-----0-------0---|---0-------2---2-|>
D|---------3-------|-2-------1-------|---2-------2-----|---------0-------|>
A|-----------------|-----------------|---------0-------|-3---------------|>
E|-3---------------|-----------------|-0---------------|-----------------|>
   1 + 2 + 3 + 4 +   1 + 2 + 3 + 4 +   1 + 2 + 3 + 4 +   1 + 2 + 3 + 4 + 


e|-----------------|-0---0-----------|-----------------|-----3-------2---|>
B|-0-----0-1---3---|---------4---4---|-3---3---2---2---|-1-----1---------|>
G|-----0-----0---0-|---0---0---0---0-|---0---0---0---0-|---0-------2---2-|>
D|---0-------------|-----------------|-----------------|---------0-------|>
A|---------0---2---|-3-------3-------|-2-------1-------|-0---------------|>
E|-3---------------|-----------------|-----------------|-----------------|>
   1 + 2 + 3 + 4 +   1 + 2 + 3 + 4 +   1 + 2 + 3 + 4 +   1 + 2 + 3 + 4 + 


e|-----------------|-----------------|-----------------|-----------------||
B|-----0-------0---|-----0-------0---|-----0-------0---|-----0-3---------||
G|---0---0---0---0-|---0---0---0---0-|---------0-------|---0-------0-----||
D|---------3-------|-2-------1-------|---0---0---0---0-|-0-------4-------||
A|-----------------|-----------------|-----------------|-----------------||
E|-3---------------|-----------------|-3---------------|-----------------||
   1 + 2 + 3 + 4 +   1 + 2 + 3 + 4 +   1 + 2 + 3 + 4 +   1 + 2 + 3 + 4 + 



ESTROFA 2

e|-----------------|-0-----0---------|-----------------|-----3---3---2---|>
B|-0---0---1---3---|-----1---4---4---|-3---3---2---2---|-1-----1---------|>
G|---0---0---0---0-|---0-------0---0-|---0---0---0---0-|---0-------2---2-|>
D|-----------------|-----------------|-----------------|---------0-------|>
A|---------0---2---|-3-------3-------|-2-------1-------|-0---------------|>
E|-3---------------|-----------------|-----------------|-----------------|>
   1 + 2 + 3 + 4 +   1 + 2 + 3 + 4 +   1 + 2 + 3 + 4 +   1 + 2 + 3 + 4 + 


e|-----------------|-0---0-----------|-----------------|-----0---2---2---|>
B|-----0---1---3---|---------4---4---|-3---3---2---2---|-1---------------|>
G|---0---0---0---0-|---0---0---0---0-|---0---0---0---0-|---0---0---2---2-|>
D|-----------------|-----------------|-----------------|-----------------|>
A|---------0---2---|-3-------3-------|-2-------1-------|-0-------0-------|>
E|-3---------------|-----------------|-----------------|-----------------|>
   1 + 2 + 3 + 4 +   1 + 2 + 3 + 4 +   1 + 2 + 3 + 4 +   1 + 2 + 3 + 4 + 


e|-----------------|-----------------|-----------------|-----------------||
B|-0-------0-------|-1-------1-------|---------0-------|---------3-------||
G|-----0-------0---|-----0-------0---|-----0-------0---|-----2-------2---||
D|---0---0---0---0-|---2---2---2---2-|---2---2---2---2-|---0---0---0---0-||
A|-----------------|-3---------------|-----------------|-----------------||
E|-3---------------|-----------------|-0---------------|-3---------------||
   1 + 2 + 3 + 4 +   1 + 2 + 3 + 4 +   1 + 2 + 3 + 4 +   1 + 2 + 3 + 4 + 



ESTROFA 3

e|-----------3-3---|-----0-------0---|-----0-----0-0---|-3-------2-2-----|>
B|-0---------0-0---|-----1-------1---|-----0-----2-2---|-1-----1-1-1-1---|>
G|-----0-----0-0---|-----0-----0-0---|-----0-----2-2---|-0---0---2-----2-|>
D|---0---0---0-0---|---2-2-2---2-2-2-|-----2-----2-2---|-2-0-----0-------|>
A|-----------2-2---|-3---3---3---3-3-|---2-2-2-0-0-0---|-3---------------|>
E|-3-------3-3-3---|-----------------|-0---0-----------|-----------------|>
   1 + 2 + 3 + 4 +   1 + 2 + 3 + 4 +   1 + 2 + 3 + 4 +   1 + 2 + 3 + 4 + 


e|-----3-----------|-3-------3-3-----|-----------------|-----0---2-------|>
B|-----0-----3-----|-5-------4-4-----|-3---3---2---2---|-1-----------1---|>
G|-----0-----0---0-|-5-5---5-5-5-----|-0---0---0---0---|---0---0---2---2-|>
D|-----0-----0-0---|-5-5---5-5-5-----|-0---0-0-0-0---0-|---------0-------|>
A|-2---2-2-2-2-2-2-|-3---3-3-3-3-----|-2---2-2-1-------|-3---------------|>
E|-3-3-3---3-------|-----------------|-----------------|-----------------|>
   1 + 2 + 3 + 4 +   1 + 2 + 3 + 4 +   1 + 2 + 3 + 4 +   1 + 2 + 3 + 4 + 


e|-------------3---|-----------------|-----3---3---3---|-----3---2---2---||
B|-0-----0---------|-----1-------1---|-----------------|-----------------||
G|-----0-----0---0-|-----------------|-------0---0---0-|---0---0---2---2-||
D|---0-----0-------|---2---2---2-----|---2-------------|-2-------0-------||
A|-----------------|-3-------3-----3-|-----------------|-----------------||
E|-3---------------|-----------------|-0---------------|-----------------||
   1 + 2 + 3 + 4 +   1 + 2 + 3 + 4 +   1 + 2 + 3 + 4 +   1 + 2 + 3 + 4 + 



ESTROFA 4

e|-----------------|-0-------2-------|-3---3---2-------|-0-------0-------|>
B|-0-------1---3---|-----------------|-------------3---|-----2-------4---|>
G|-----0-----0---0-|-----------------|-----------0---0-|---0---0---0---0-|>
D|---0---0---------|---------1-------|-2---2---0-------|-----------------|>
A|---------0---2---|-3---------------|-----------------|-4-------3-------|>
E|-3---------------|-----------------|-----------------|-----------------|>
   1 + 2 + 3 + 4 +   1 + 2 + 3 + 4 +   1 + 2 + 3 + 4 +   1 + 2 + 3 + 4 + 


e|-----------------|-----3---3---3---|-----------------|-----------------|>
B|-3---3---2---2---|-----------------|-----0-------0---|-------0-------3-|>
G|---0---0---0---0-|---0---0---0---0-|---0---0---0---0-|-----0-------0---|>
D|-----------------|-----------------|-2-------0-------|---2-------4-----|>
A|-2-------1-------|-0---------------|-----------------|-4-------5-------|>
E|-----------------|-----------------|-----------------|-----------------|>
   1 + 2 + 3 + 4 +   1 + 2 + 3 + 4 +   1 + 2 + 3 + 4 +   1 + 2 + 3 + 4 + 


e|-----------------|-----------------|-----3---3---3---|-----2-------2---|>
B|-------0-----0---|-1---1---1---1---|-----------------|---3---3---3---3-|>
G|-----0-----0-----|-----------------|---0---0---0---0-|-----------------|>
D|---0-----0-----0-|---2---2---2---2-|-----------------|-----------------|>
A|-----------------|-3---------------|-----------------|-2-------2-------|>
E|-3---------------|-----------------|-0---------------|-----------------|>
   1 + 2 + 3 + 4 +   1 + 2 + 3 + 4 +   1 + 2 + 3 + 4 +   1 + 2 + 3 + 4 + 


e|-0---7---7---7---|---------7-------|-5---------------||
B|-----------------|-----5-----------|-5---------------||
G|---5---5---5---5-|---5---5---------|-5---------------||
D|-----------------|-4---------------|-----------------||
A|-0---------------|-----------------|-----------------||
E|-----------------|-----------------|-----------------||
   1 + 2 + 3 + 4 +   1 + 2 + 3 + 4 +   1 + 2 + 3 + 4 +



ESTROFA 5

e|-----------------|-----------------|-----------------|-----------------|>
B|-0-----0-----0---|-1-----1-----1---|-----0-------0---|-------------3---|>
G|-----0-----0-----|-----0-----0-----|---0---0---0---0-|-----0-----0---0-|>
D|---0-----0-----0-|---2-----2-------|-2-------0-------|---2---2-0-------|>
A|-----------------|-3---------------|-----------------|-3---------------|>
E|-3---------------|-----------------|-----------------|-----------------|>
   1 + 2 + 3 + 4 +   1 + 2 + 3 + 4 +   1 + 2 + 3 + 4 +   1 + 2 + 3 + 4 + 


e|-----------------|-0---0-----------|-----------------|-----0---0-------|>
B|-0-------1---3---|---------4---4---|-3---3---2---2---|-1---------3-1-0-|>
G|-----0-----0---0-|---0---0---0---0-|---0---0---0---0-|---0---0---------|>
D|---0---0---------|-----------------|-----------------|-----------------|>
A|---------0---2---|-3-------3-------|-2-------1-------|-0-------3-2-0---|>
E|-3---------------|-----------------|-----------------|---------------3-|>
   1 + 2 + 3 + 4 +   1 + 2 + 3 + 4 +   1 + 2 + 3 + 4 +   1 + 2 + 3 + 4 + 


e|-----------------|-----3---3-------|-2-------3--------||
B|-3---3---2---2---|-1-------1-------|-3-------0--------||
G|---0---0---0---0-|---2-----2-------|-2-------0--------||
D|---------1-------|-0-------0-------|-0-------0--------||
A|-2---------------|-----------------|---------2--------||
E|-----------------|-----------------|---------3--------||
   1 + 2 + 3 + 4 +   1 + 2 + 3 + 4 +   1 + 2 + 3 + 4 +


Si tienen alguna duda o quieren pedirme algún tab en especial mándenme un
mail a guille@cponline.org.ar, también puedo mandarles el midi de esta
canción.
		   
AcordesyTabs.com © 2008 Acordes y Tablaturas para guitarra. Tabs and Chords for guitar. Aviso Legal - Contacto
El uso de este sitio está sujeto a la aceptación de los términos y condiciones (47 usuarios online)