tablaturas, partituras y acordes para guitarra
Busca por banda/artista:
 
y/o título de la canción:
A B C D E F G H I J K L M N O P Q R S T U V W X Y Z 0 1 2 3 4 5 6 7 8 9 / Top 100 tabs
Categorías
Usuarios
usuario:
Darse de alta
password:
Artistas más visitados
Publicidad
TOP acordes y tablaturas de los Temerarios


Estás en: Inicio > Letra l > Acordes y tablaturas de los Temerarios > Mi corazón te quiere
Mi corazón te quiere
de los Temerarios
Puntúa este acorde/tab:      
(0.3/5)
Reportar este acorde/tab
  Añadir a tus favoritos
  Imprimir
Armoniza en Re mayor

e------------------------------------------------------
B-7-7-7-7-5---8--5-5-7-8-7-8-7--7-7-7-5-------5-7-8-7-5--
G-----------7---------------------------7-7-6-----------7
D--------------------------------------------------------
A--------------------------------------------------------
E--------------------------------------------------------

e------------------------------------------------------
B-7-7-7-7-5---8-5-5-7-8-7-8-7--7-7-7-7-5-----5-5-7-8-7-5--
G-----------7----------------------------7-6-------------7--
D--------------------------------------------------------
A--------------------------------------------------------
E--------------------------------------------------------
		   
AcordesyTabs.com © 2008 Acordes y Tablaturas para guitarra. Tabs and Chords for guitar. Aviso Legal - Contacto
El uso de este sitio está sujeto a la aceptación de los términos y condiciones (52 usuarios online)