tablaturas, partituras y acordes para guitarra
Busca por banda/artista:
 
y/o título de la canción:
A B C D E F G H I J K L M N O P Q R S T U V W X Y Z 0 1 2 3 4 5 6 7 8 9 / Top 100 tabs
Categorías
Usuarios
usuario:
Darse de alta
password:
Artistas más visitados
Publicidad
TOP acordes y tablaturas de Fobia


Estás en: Inicio > Letra F > Acordes y tablaturas de Fobia > Hoy tengo miedo
Hoy tengo miedo
de Fobia
Puntúa este acorde/tab:      
(0.4/5)
Reportar este acorde/tab
  Añadir a tus favoritos
  Imprimir
Bueno ps aki esta esta rola super chida espero que les guste chekenla.........

Intro: el intro es en bajo.................

La guitarra empieza a tocar en..............

Hoy tengo miedo de salirte a buscar..........
-------------------------------------------------------------------------
-------------------------------------------------------------------------
------1--------------6------6-------6--------4--------2------2-----------
-----2-2-----4------6-6----6-6-----6-6------4-4------2-2----2-2----------
----2-------4-4----4------4-------4--------2--------0------0-------------
-----------2-------------------------------------------------------------

Te digo no seas tonto no seas tan eceptico to trates de escapar.............
---------------------------------------------------------------------------------
---------------------------------------------------------------------------------
----------------------------------6-----6-----7-----7-----6-----6-----6-----6----
-------7-----7-----6-----6-------6-6---6-6---7-7---7-7---6-6---6-6---6-6---6-6---
------7-7---7-7---6-6---6-6-----4-----4-----5-----5-----4-----4-----4-----4------
-----5-----5-----4-----4---------------------------------------------------------

---------------------------------------------------------------------------------
---------------------------------------------------------------------------------
---------------------------------------------------------------------------------
-----7----7----7----7------------------------------------------------------------
----7-7--7-7--7-7--7-7-----------------------------------------------------------
---5----5----5----5--------------------------------------------------------------

Hoy tengo miedo de volver a bailar......................
---------------------------------------------------------------------------------
---------------------------------------------------------------------------------
---9----------------6----------------6------------------2------------------------
---9----------------6----------------6------------------2------------------------
---7----------------4----------------4------------------0------------------------
---------------------------------------------------------------------------------

Hoy tengo miedo de salir otra vez....................
-------------------------------------------------------------------------
-------------------------------------------------------------------------
------1--------------6------6-------6--------4--------2------2-----------
-----2-2-----4------6-6----6-6-----6-6------4-4------2-2----2-2----------
----2-------4-4----4------4-------4--------2--------0------0-------------
-----------2-------------------------------------------------------------

Te digo no seas tonto no seas tan eceptico to trates de escapar.............
---------------------------------------------------------------------------------
---------------------------------------------------------------------------------
----------------------------------6-----6-----7-----7-----6-----6-----6-----6----
-------7-----7-----6-----6-------6-6---6-6---7-7---7-7---6-6---6-6---6-6---6-6---
------7-7---7-7---6-6---6-6-----4-----4-----5-----5-----4-----4-----4-----4------
-----5-----5-----4-----4---------------------------------------------------------

---------------------------------------------------------------------------------
---------------------------------------------------------------------------------
---------------------------------------------------------------------------------
-----7----7----7----7------------------------------------------------------------
----7-7--7-7--7-7--7-7-----------------------------------------------------------
---5----5----5----5--------------------------------------------------------------

Coro:
No todos son tan malos no todo esa mal.................
--------0-0-0-0-0-0-0-0---------------------------------------------------------------------
--------0-0-0-0-0-0-0-0---------------------------------------------------------------------
--------1-1-1-1-1-1-1-1--------------------------------6-6-6-6-6-6-6-6-6-6-6-6-6-6-6-6------
--------2-2-2-2-2-2-2-2-------4-4-4-4-4-4-4-4----------6-6-6-6-6-6-6-6-6-6-6-6-6-6-6-6------
--------2-2-2-2-2-2-2-2-------4-4-4-4-4-4-4-4----------4-4-4-4-4-4-4-4-4-4-4-4-4-4-4-4------
--------0-0-0-0-0-0-0-0-------2-2-2-2-2-2-2-2-----------------------------------------------

Te digo no seas tonto no seas tan eceptico to trates de escapar.............
---------------------------------------------------------------------------------
---------------------------------------------------------------------------------
----------------------------------6-----6-----7-----7-----6-----6-----6-----6----
-------7-----7-----6-----6-------6-6---6-6---7-7---7-7---6-6---6-6---6-6---6-6---
------7-7---7-7---6-6---6-6-----4-----4-----5-----5-----4-----4-----4-----4------
-----5-----5-----4-----4---------------------------------------------------------

---------------------------------------------------------------------------------
---------------------------------------------------------------------------------
---------------------------------------------------------------------------------
---------7-7-7-7-7-7-7-7---------------------------------------------------------
---------7-7-7-7-7-7-7-7---------------------------------------------------------
---------5-5-5-5-5-5-5-5---------------------------------------------------------

Coro:
No todos son tan malos no todo esa mal.................
--------0-0-0-0-0-0-0-0---------------------------------------------------------------------
--------0-0-0-0-0-0-0-0---------------------------------------------------------------------
--------1-1-1-1-1-1-1-1--------------------------------6-6-6-6-6-6-6-6-6-6-6-6-6-6-6-6------
--------2-2-2-2-2-2-2-2-------4-4-4-4-4-4-4-4----------6-6-6-6-6-6-6-6-6-6-6-6-6-6-6-6------
--------2-2-2-2-2-2-2-2-------4-4-4-4-4-4-4-4----------4-4-4-4-4-4-4-4-4-4-4-4-4-4-4-4------
--------0-0-0-0-0-0-0-0-------2-2-2-2-2-2-2-2-----------------------------------------------


Oh....                                                   Oh.......Oh.................
--------0-0-0-0-0-0-0-0---------------------------------------------------------------------
--------0-0-0-0-0-0-0-0---------------------------------------------------------------------
--------1-1-1-1-1-1-1-1--------------------------------6-6-6-6-6-6-6-6-6-6-6-6-6-6-6-6------
--------2-2-2-2-2-2-2-2-------4-4-4-4-4-4-4-4----------6-6-6-6-6-6-6-6-6-6-6-6-6-6-6-6------
--------2-2-2-2-2-2-2-2-------4-4-4-4-4-4-4-4----------4-4-4-4-4-4-4-4-4-4-4-4-4-4-4-4------
--------0-0-0-0-0-0-0-0-------2-2-2-2-2-2-2-2-----------------------------------------------

Y termina en..............................
--------------0-------------------------------------------------------
--------------0-------------------------------------------------------
--------------1-------------------------------------------------------
--------------2-------------------------------------------------------
--------------2-------------------------------------------------------
--------------0-------------------------------------------------------

Bueno eso es todo...........

Dudas o comentarios     mario18_pg@hotmail.com
		   
AcordesyTabs.com © 2008 Acordes y Tablaturas para guitarra. Tabs and Chords for guitar. Aviso Legal - Contacto
El uso de este sitio está sujeto a la aceptación de los términos y condiciones (22 usuarios online)