tablaturas, partituras y acordes para guitarra
Busca por banda/artista:
 
y/o título de la canción:
A B C D E F G H I J K L M N O P Q R S T U V W X Y Z 0 1 2 3 4 5 6 7 8 9 / Top 100 tabs
Categorías
Usuarios
usuario:
Darse de alta
password:
Artistas más visitados
Publicidad
TOP acordes y tablaturas de Enya


Estás en: Inicio > Letra E > Acordes y tablaturas de Enya > Only time
Only time
de Enya
Puntúa este acorde/tab:      
(0.3/5)
Reportar este acorde/tab
  Añadir a tus favoritos
  Imprimir
Filme: Doce Novembro ( Sweet November - Keanu Reeves and Charlize Theron )
Tab por: Zé Luiz

Afinação: Standart ( EADGBe )

Esta música não possui guitarra, porem é muito fácil se armonizar uma base
para ela. Esses são acordes.

Rythym: (Você pode ir dedilhando...

    D              Bm               G              D   
e:----2-----2--------------------------------------2-----2---|
B:------3-----3------3-----3--------3-----3----------3-----3-|
G:--2-----2-----2------4-----4--------0-----0----------2-----|
D:-----------------4-----4-----4--0-----0-----0--2-----------|
A:-----------------------------------------------------------|
E:-----------------------------------------------------------|

...ou tocando por acordes.

       D          Bm           G           D
e:-----2-----|-----2-----|-----3-----|-----2-----|
B:-----3-----|-----3-----|-----3-----|-----3-----|
G:-----2-----|-----4-----|-----0-----|-----2-----|
D:-----0-----|-----4-----|-----0-----|-----0-----|
A:-----0-----|-----2-----|-----2-----|-----0-----|
E:-----0-----|-----2-----|-----3-----|-----0-----|

Melodia ( acompanha o vocal da Enya )

Riff 1
e:-------1---------|-1------------1--------------|
B:-4-4-4---3-3-4-4-|---3-3-4-4------3-4----------|
G:-----------------|---------------------------3-| Repete
D:-----------------|-----------------------------|
A:-----------------|-----------------------------|
E:-----------------|-----------------------------|

Riff 2
e:--8-11-13-15--|------------------|-----------------------|
B:--------------|--16----16-18-16--|--18--18--20----20-18--|
G:--------------|-----17-----------|--19--19--20----20-19--|
D:--------------|------------------|-----------------------|
A:--------------|------------------|-----------------------|
E:--------------|------------------|-----------------------|

Riff 3
e:----------15-18---20--|-------------|----------------15----15-|
B:----16-18-------------|-18-20-18----|--18-18---18-16-------13-|
G:-17-------------------|----------20-|--19-19---19-17----------|
D:----------------------|-------------|-------------------------|
A:----------------------|-------------|-------------------------|
E:----------------------|-------------|-------------------------|

Riff 4
e:--------------------------|-------------------------------------|
B:--------------------------|-------------------------------------|
G:----------10--------------|-10-----------------10---------------| Repete
D:-13-13-13----12-12-13-13--|----12-12-13-13--------12-13---------|
A:--------------------------|----------------------------------13-|
E:--------------------------|-------------------------------------|

Repete Riff 2


Riff 5 ( Não dividi este riff, por fazer parte do final da musica )
----------------------------|----------------------------|
----------------------------|----------------------------|
----------------------------|------0---0---------10------|
--13----13----13----15--12--|--12--13--13------------12--|
----------------------------|--------------------11------|
--15----15----15----16--13--|--13--------------------13--|
                       
----------------------------|----------------------|
----------------------------|----------------------|
------0---0---------10------|----0-----------------|
--12--13--13------------12--|----13----------------|
--------------------11------|------------------13--|
--13--------------------13--|----------------------|
                                                                               
----------------------------|----------------------|--------------------------|
----------------------------|----------------------|--------------------------|
------0---0---------10------|----0-----------------|--------------------------|
--12--13--13------------12--|----13----------------|--13----13--------15--12--|
--------------------11------|------------------13--|--15----15--------17--13--|
--13--------------------13--|----------------------|--------------------------|
                                                        
--------------------|--------------------|------------------------|
--------------------|--------------------|---------------------7--|
----0---------------|--0-----------------|------11--10--11--8-----|
----13--------------|--------------------|--11--------------9-----|
--------------------|--13----------------|--13------11------------|
--------------------|--13----------------|------------------------|
                                              
---------------|--9---14--16--13------14--|----------------|
---------------|--11------15------16------|--14------------|
--6------------|------------------16------|--15------------|
--8------------|--------------------------|----------------|
---------------|--------------------------|----------------|
---------------|--------------------------|----------------|
                                                          
------------------------|---------------|--------4--------2--1----|
---------------------7--|---------------|-----7--4--6--4-----3----|
------11--10--11--8-----|--6------------|--6-----------5----------|
--11--------------9-----|--8------------|--8----------------------|
--13------11------------|---------------|-------------------------|
------------------------|---------------|-------------------------|
                                            
--3----------------|
--4----------------|
--3----------------|
-------------------|
-------------------|
-------------------|		   
AcordesyTabs.com © 2008 Acordes y Tablaturas para guitarra. Tabs and Chords for guitar. Aviso Legal - Contacto
El uso de este sitio está sujeto a la aceptación de los términos y condiciones (24 usuarios online)