tablaturas, partituras y acordes para guitarra
Busca por banda/artista:
 
y/o título de la canción:
A B C D E F G H I J K L M N O P Q R S T U V W X Y Z 0 1 2 3 4 5 6 7 8 9 / Top 100 tabs
Categorías
Usuarios
usuario:
Darse de alta
password:
Artistas más visitados
Publicidad
TOP acordes y tablaturas de Kannon


Estás en: Inicio > Letra K > Acordes y tablaturas de Kannon > Mi Misión
Mi Misión
de Kannon
Puntúa este acorde/tab:      
(0.5/5)
Reportar este acorde/tab
  Añadir a tus favoritos
  Imprimir

NOTACION

h= hammer on
()= harmónico
>= mantener el sonido
*=tocar varias veces esa nota o acorde
PM= palm muted (si va seguido de una línea de puntos hacerlo
hasta donde termina la línea de puntos)

-----------------------------------------------------------
-----------------------------------------------------------

AFINACION

Dropped C# (C#,G#,C#,F#,Bb,Eb): afina la sexta cuerda de tu
guitarra tres semitonos menos y las cinco cuerdas restantes
afínalas un semitono menos

-----------------------------------------------------------
-----------------------------------------------------------


-----
INTRO
-----


----------------------------------
----------------------------------
--7-7--7-7--7-7----8----6-6--6-6--
--7-7--7-7--7-7----7----7-7--7-7--
--5-5--5-5--5-5----5*---5-5--5-5--
----------------------------------


------
CHORUS (Mi voz suena...)
------


-----------------------------
-----------------------------
--2--2-------2--2------------
--0--0-------0--0------------
--0--0--0-0--0--0--0-0--0h1--
--0--0--0-0--0--0--0-0--0h1--
        PM.        PM......

Variar el ritmo de rasgueo cuando sea necesario


Hay una parte del chorus con una ligera variación:

(... es mi forma de arrasar, es cantando)
-----------------------------
-----------------------------
--2--2-------2--2------------
--0--0-------0--0-------0h1--
--0--0--0-0--0--0--0-0--0h1--
--0--0--0-0--0--0--0-0--0h1--
        PM.        PM.


-----
VERSO (Noches de doce horas...)
-----


Guitarra 1: tocar lo mismo que en Intro
----------


Guitarra 2
----------

------------------------
------------------------
------------------------
------------------------
----------(7)>----(5)>--
--(5)>------------------


-----------
POST-CHORUS
-----------


1) (... no acabar en derrota)


--------------------
--------------------
--2--2--------------
--0--0--0--3--0--1--
--0--0--0--3--0--1--
--0--0--0--3--0--1--
        PM........


2) (... pero es mi misión)


-----------------------------
-----------------------------
--2--5-----------------------
--0--3--0--6--3--0--3--0--1--
--0--3--0--6--3--0--3--0--1--
--0--3--0--6--3--0--3--0--1--

-----------------------------
-----------------------------
--2--5--------------5--------
--0--3--0--6--3--0--3--0--1--
--0--3--0--6--3--0--3--0--1--
--0--3--0--6--3--0--3--0--1--

-----------------------------
-----------------------------
-----5--------------5--------
--0--3--0--6--3--0--3--0--1--
--0--3--0--6--3--0--3--0--1--
--0--3--0--6--3--0--3--0--1--

-----------------------------
-----------------------------
-----5-----------------------
--0--3--0--6--3--0--3--0--1--
--0--3--0--6--3--0--3--0--1--
--0--3--0--6--3--0--3--0--1--


3) (Hoy de nuevo lo intenté...)


-------------------------------------------------------
-------------------------------------------------------
--------------5---------------------------5------------
--0---0-0-0---3--0---0-0-0---3--0---0-0---3--0---0--1--
--0---0-0-0---3--0---0-0-0---3--0---0-0---3--0---0--1--
--0---0-0-0---3--0---0-0-0---3--0---0-0---3--0---0--1--
      PM...          PM...          PM.         PM

--------------------------------------------------------
--------------------------------------------------------
--------------5---------------------------5---------5>--
--0---0-0-0---3--0---0-0-0---3--0---0-0---3--0---0--5>--
--0---0-0-0---3--0---0-0-0---3--0---0-0---3--0---0--0>--
--0---0-0-0---3--0---0-0-0---3--0---0-0---3--0---0--0>--
      PM...          PM...          PM.         PM


-----------------------------------------------------------
-----------------------------------------------------------
		   
AcordesyTabs.com © 2008 Acordes y Tablaturas para guitarra. Tabs and Chords for guitar. Aviso Legal - Contacto
El uso de este sitio está sujeto a la aceptación de los términos y condiciones (22 usuarios online)