tablaturas, partituras y acordes para guitarra
Busca por banda/artista:
 
y/o título de la canción:
A B C D E F G H I J K L M N O P Q R S T U V W X Y Z 0 1 2 3 4 5 6 7 8 9 / Top 100 tabs
Categorías
Usuarios
usuario:
Darse de alta
password:
Artistas más visitados
Publicidad
TOP acordes y tablaturas de Lynyrd skynyrd


Estás en: Inicio > Letra L > Acordes y tablaturas de Lynyrd skynyrd > Sweet home alabama intro
Sweet home alabama intro
de Lynyrd skynyrd
Puntúa este acorde/tab:      
(0.4/5)
Reportar este acorde/tab
  Añadir a tus favoritos
  Imprimir

                           Sweet Home Alabama
                             Lynyrd Skynyrd

D5	:x13xxx
D6	:x15xxx
C5	:x35xxx
C6	:x15xxx
G5      :35xxxx
G6	:15xxxx
Csus2	:x3553x

===============

Intro:

   D          Csus2           G                                  
e----------------------------------------------------------------
b--------3-------------3-----------------------------------------
g----------2-------------0-----------0--0-------------2p0--------
d--0--0-------0-------------0-----------------0h2p0--------------
a---------------3p0-3---------------------0h2-------2------------
e-----------------------------3p0-3------------------------------

   D          Csus2                                              
e----------------------------------------------------------------
b--------3-------------3-----------------------------------------
g----------2-------------0-----------0--0h2p0-0h4p0---5----------
d--0--0-------0-------------0-----------------------0------------
a---------------3p0-3--------------------------------------------
e-----------------------------3-x-3------------------------------

   D        Csus2         G                                      
e----------------------------------------------------------------
b--------3-----------3--3--------3----3--------------------------
g--------2-----------0--0--------0----0-------------2p0----------
d--0--0-----x-----------2--------0----0-----0h2p0----------------
a-------------3p0-3-----------------------0h2-------2------------
e-------------------------3-x-3------3---------------------------

   D        Csus2       G                                        
e----------------------------------------------------------------
b--------3---------3--3--------3---------------------------------
g--------2---------0--0--------0---------0-----------------------
d--0--0---------------0--------0-------0-------------------------
a-----------3p0-3------------------1/2---------------------------
e-----------------------3-x-3------------------------------------

		   
AcordesyTabs.com © 2008 Acordes y Tablaturas para guitarra. Tabs and Chords for guitar. Aviso Legal - Contacto
El uso de este sitio está sujeto a la aceptación de los términos y condiciones (31 usuarios online)