tablaturas, partituras y acordes para guitarra
Busca por banda/artista:
 
y/o título de la canción:
A B C D E F G H I J K L M N O P Q R S T U V W X Y Z 0 1 2 3 4 5 6 7 8 9 / Top 100 tabs
Categorías
Usuarios
usuario:
Darse de alta
password:
Artistas más visitados
Publicidad
TOP acordes y tablaturas de Jaguares


Estás en: Inicio > Letra J > Acordes y tablaturas de Jaguares > Imagíname
Imagíname
de Jaguares
Puntúa este acorde/tab:      
(0.5/5)
Reportar este acorde/tab
  Añadir a tus favoritos
  Imprimir
     INTRODUCCIÓN
guitarra de Saúl		
esto se repite  5 veces         y     esto   
e----------------------------------------------------------------------------------------------------------------
B---------------------------------------------------------------------------------------------------------------
G----------------------------------------------------------------------------------------------------------------
D----------9-----9-----9--------------------------------5--5----5--5-----5---5---------------------------
A------10---10-----7----7----------------------------7--7----7-----7--7---7-------------------------------
E----8--------------8---------------------------------0--------0--------0----------8--6---------------------

guitarra de Jose Manuel Aguilera
e----------------------------------------------------------------------------------------------------------------
B---------------------------------------------------------------------------------------------------------------
G--12-12-12-12---12-12-----------------9-9-9-9---12-12-12-12--12------------------12-12-12-12--14-14-14--16-16-17/16----
D---------------------------12-12-12-12------------------------------------12-12-12-12-------------------
A---------------------------------------------------------------------------------------------------------------
E---------------------------------------------------------------------------------------------------------------

primer verso
   rezare por ti         hasta elevar el mar         cambiare la faz ,         
e-------------------------------------------------------------------------------------------------------------
B------------------------------------------------------------------------------------------------------------
G-----------------------------------------------------------------------------------------------------------
D-----------------------------------------------------------------------------------------------------------
A---11--11-11/12----------11--------11-------------11/12------11----11----11/12-------------
E----9---9--9/10-----------9---------9---------    -9/10------ 9-----9-----9/10---------------




Del misterio ancestral

A----------2-2------------2-3-2--------------------------------------------
E--0-2-3-------3-2-3-2----------------------------------------------------

y se repite hasta:

 aguila celeste ayudame

A----8--8-------8-------------------------------------------------------------------------
E----6--6-------6------------------------------------------------------------------------
y se repite de nuevo......


cuando dice:::

        imaginame y resucitame

e-----6------------5---------------------3------
B-----6------------5---------------------3-----
G-----8------------7---------------------5----
D-----8------------7---------------------5----
A-----6------------5---------------------3-----
E-----6------------5---------------------3-----


    solo ven por mi

e-----6------------5---------------------3-----
B-----6------------5---------------------3-----
G-----8------------7---------------------5----
D-----8------------7---------------------5----
A-----6------------5---------------------3----
E-----6------------5---------------------3---

el requinto esta muy facil pero despues lo escribo.....
tablatura por: Balam Ak'ab
cualquier duda o correcion es aceptada.....gracias      Balam Ak'ab R.D.A.
		   
AcordesyTabs.com © 2008 Acordes y Tablaturas para guitarra. Tabs and Chords for guitar. Aviso Legal - Contacto
El uso de este sitio está sujeto a la aceptación de los términos y condiciones (44 usuarios online)