tablaturas, partituras y acordes para guitarra
Busca por banda/artista:
 
y/o título de la canción:
A B C D E F G H I J K L M N O P Q R S T U V W X Y Z 0 1 2 3 4 5 6 7 8 9 / Top 100 tabs
Categorías
Usuarios
usuario:
Darse de alta
password:
Artistas más visitados
Publicidad
TOP acordes y tablaturas de Silvio Rodriguez


Imagínate
de Silvio Rodriguez
Puntúa este acorde/tab:      
(0.5/5)
Reportar este acorde/tab
  Añadir a tus favoritos
  Imprimir
Ya se sabe que existe una versión de esta rola aqui en el atame, esta no es una versión
nueva por que la existente es muy buena, sólo tiene dos tres correcciones de exctitud,
y el tab del intro. Se la dedico a una querida amiga que se llama Silivia Fuentes como
un regalo por darme su amistad. 



F E7 Am C D E F e d F D/F# G

e-------------------------------------------------
B-1---1-3---3-5---5---5---6---6---5---3---3---3---
G---0-----0-----0---0---0---0---0---0---0---0---0-
D-------------------------------------------------
A-3-----5-----7-----------8-------7---5-----------
E-------------------------------------------------

e-------------------------------------------------
B--8---8-6---6-5---5---5---6-5-3-1-0--------------
G----0-----0-----0---0---0------------------------
D-------------------------------------------------
A-10-----8-----7-----------8-7-5-3-2--------------
E-------------------------------------------------

  *NOTA:Es el décimo traste.



G   Am     G/B      C
  a)I m a g i n a t e
     Dm       C   G/B
que desde muy ni  ño,
    G/E    Dm  C        
te llevaba flo res, 
    Dm          G
te daba mi abrigo


a)Imaginate,
que soy el amigo
de tu mismo grado, 
que lleva tus libros.  

 Am G/B C Dm C G/B G/E Dm C Dm G


   F       E7      Am
 b)I m a g i n a t e    
  C     D/F#   E       F
que soy de tu calle,
          Em   Dm      F
que siempre pasé,
       D/F#     G
por donde    miraste  


 b)Imaginate
que hasta mi perro,
mebusca en tu puerta
cuando me le pierdo. (toca el tab)

 a)Imaginate 
que somos nosotros,
tú y yo pra siempre,
que no eres de otro.

Final: Am G/B C Dm C G/B G/E Dm C Dm G

NOTAS:
      
   Am   G/B  C  Dm  G/E  G  F  E7  D/F# E  Em
e---0----3---0---1---3---3--1---0---2---0---0---
B---1----3---1---3---3---3--1---0---3---0---0---
G---2----0---0---2---0---0--2---1---2---1---0---
D---2----0---2---0---0---0--3---0---0---2---2---
A---0----2---3---X---2---2--3---2---X---2---2---
E---X----X---X---X---0---3--1---0---2---0---0---



Cualquier duda o aclaración sólo escribanme.
		   
AcordesyTabs.com © 2008 Acordes y Tablaturas para guitarra. Tabs and Chords for guitar. Aviso Legal - Contacto
El uso de este sitio está sujeto a la aceptación de los términos y condiciones (31 usuarios online)