tablaturas, partituras y acordes para guitarra
Busca por banda/artista:
 
y/o título de la canción:
A B C D E F G H I J K L M N O P Q R S T U V W X Y Z 0 1 2 3 4 5 6 7 8 9 / Top 100 tabs
Categorías
Usuarios
usuario:
Darse de alta
password:
Artistas más visitados
Publicidad
TOP acordes y tablaturas de Foo Fighters


Estás en: Inicio > Letra F > Acordes y tablaturas de Foo Fighters > My Hero Solo Acoustic
My Hero Solo Acoustic
de Foo Fighters
Puntúa este acorde/tab:      
(0.2/5)
Reportar este acorde/tab
  Añadir a tus favoritos
  Imprimir
i got this off the "howard stern show"              i think it's pretty accurate

             use this for the intro and the verse

e-------------------------------------------------------------------
b---------------------------------5---------------------------------
g-----------------------6-6-6-6-6-6---------------------------------
d------2-2-2-2--------6-6-6-6-6-6-----------------------------------
a------2-2-2-2--------4-4-4-4-4-4-----------------------------------
E-------------------------------------------------------------------

CHORUS

e-------------------------------------------------------------------------------
b-------------------------------------------------------------------------------
g--------------8-8-8-8-----9-9-9-9----11-11-11-11----------------------8-8-8-8--
d---7-7-7-7----8-8-8-8-----9-9-9-9----11-11-11-11----X 2    2-2-2-2----8-8-8-8--
a---7-7-7-7----6-6-6-6-----7-7-7-7----9---9--9---9----------2-2-2-2----6-6-6-6--
E---5-5-5-5-------------------------------------------------0-0-0-0-------------

little  part at end of chorus
e-----------------------------------------------------0-0--0--0---------
b-----------------------------------------------------4/5--4---0-------
g----------------------------------------------------------------------
d----------------------------------------------------------------------
a------------4---2------- 0--------------------------------------------
E------2-2----------4--------------------------------------------------

 Hey i think thats pretty good                thats the whole song    
bye bye god bless yall take care of each other bye bye   
sorry bout the  positioning of the tabs on the screen bye bye
		   
AcordesyTabs.com © 2008 Acordes y Tablaturas para guitarra. Tabs and Chords for guitar. Aviso Legal - Contacto
El uso de este sitio está sujeto a la aceptación de los términos y condiciones (20 usuarios online)