tablaturas, partituras y acordes para guitarra
Busca por banda/artista:
 
y/o título de la canción:
A B C D E F G H I J K L M N O P Q R S T U V W X Y Z 0 1 2 3 4 5 6 7 8 9 / Top 100 tabs
Categorías
Usuarios
usuario:
Darse de alta
password:
Artistas más visitados
Publicidad
TOP acordes y tablaturas de Marcos Witt


Estás en: Inicio > Letra M > Acordes y tablaturas de Marcos Witt > Mi Primer Amor
Mi Primer Amor
de Marcos Witt
Puntúa este acorde/tab:      
(0.4/5)
Reportar este acorde/tab
  Añadir a tus favoritos
  Imprimir
Intro: Dmaj7 – A/C#(x2) Bm7 – D/E - E – 

ESTROFA:
  A              E/G#  
           OH Jesús,       
E----------------4---------
A-0------------------------
D---2--------------2-------
G--------------------------
B-----0-0_2----------0-0_2-
e--------------------------

     F#m7                      E   D
 mis pasos me han llevado  tan le—-jos de Ti.
E----2-------------------------0------------/
A------------------------------|------------/
D-------2----------------------|----0-------/
G------------4--------2----2---|--1-|-------/
B------------------------------|-0--|-------/
e-----------------------0------0----2-------/

  A               E/G#  
           Mi alma         
E-----------------4---------
A-0-------------------------
D---2---------------2-------
G---------------------------
B-----0-0_2-----------0-0_2-
e---------------------------

         F#m7                     E     D
 se ha secado en el desierto  dentro de mi.
E--------2---------------------------------/
A------------------------------------------/
D------------2--------------------2-----0--/
G----------------4-----2-----2----1-----2--/
B---------------------------------0-----3--/
e--------------------------0------------2--/

    Dmaj7   A/C#         Dmaj7                     
Y escúchame mi Jesús, el amor de mi vida,                         
   A/C#                 Bm7        Aadd9/C# - E   A
la luz de mi existir no puedo -  vivir   -    sin Ti.

CORO:	
             Amaj7            Bm7
 Mi Primer Amor,     te adoraré por siempre
    D               F      A
 yo quiero estar pegado a Ti.
          Amaj7          Bm7       D     Dm            
 Llévame hoy al Santo lugar Jesús, donde    te conocí.
	 
Acordes:   A         E/G#      F#m7     E – D   
         E-----------4---------2-------   -   -/
         A-0---------------------------   -   -/
         D---2---------2---------2-----   -   -/
         G-------------------------4-2-cortes--/
         B-----0-0_2-----0-0_2---------   -   -/
         e-----------------------------   -   -/
bajo:                                   E   D   

Acordes:   A         E         F#m7        E    D
         E-----------4---------2-----------0------/
         A-0-------------------------------|------/
         D---2---------2---------2---------|----0-/
         G-------------------------4-2---2-|--1-|-/
         B-----0-0_2-----0-0_2-------------|-0--|-/
         e-----------------------------0---0----2-/
bajo:      A         G#        F           E    D  



Acordes:   A         E         F#m7        E   D     
         E-----------4---------2-----------------/   
         A-0-------------------------------------/   
         D---2---------2---------2-----------2-0-/   
         G-------------------------4-2---2—-1--2-/   
         B-----0-0_2-----0-0_2-------------0---3-/   
         e-----------------------------0-------2-/   
bajo:      A         G#        F#          E   D     

Acordes:   Dmaj7    A              Bm7     A  E   A   
         E-------------------     -----------   -   -/
         A-5-----5--4-----4--     -2-------4-   -   -/
         D-|-----|--|-----|--     -|-------2-   –   -/
         G-|-----4--|-----2--     -2-----2-2-acordes-/
         B-2---2----0---0----     -----0---0-   -   -/
         e---2--------0------(x2) ---0-----0-   -   -/
bajo:      D        C#              B       C# E   A    

	
(se repite el CORO dos veces suave y dos veces fuerte)

final: Dmaj7 – A/C#(x2) Bm7 – D/E - E – Aadd9	

ACORDES:
EADGBe
X42200 Aadd9/C#
4X245X E/G#
242222 F#m7
XX0222 Dmaj7
0X2232 D/E
X4222X A/C#
X24232 Bm7      
X02120 Amaj7
X02200 Aadd9
		   
AcordesyTabs.com © 2008 Acordes y Tablaturas para guitarra. Tabs and Chords for guitar. Aviso Legal - Contacto
El uso de este sitio está sujeto a la aceptación de los términos y condiciones (28 usuarios online)