tablaturas, partituras y acordes para guitarra
Busca por banda/artista:
 
y/o título de la canción:
A B C D E F G H I J K L M N O P Q R S T U V W X Y Z 0 1 2 3 4 5 6 7 8 9 / Top 100 tabs
Categorías
Usuarios
usuario:
Darse de alta
password:
Artistas más visitados
Publicidad
TOP acordes y tablaturas de Foo Fighters


Next Year
de Foo Fighters
Puntúa este acorde/tab:      
(0.7/5)
Reportar este acorde/tab
  Añadir a tus favoritos
  Imprimir
Artist:  Foo Fighters
Song:  Next Year
Album:  There is Nothing Left to Loose


This is song is basicaly just repeating the same thing, so here are the chords y

Just listen for the rhythm, you can't miss it.

this progression is played through the Verse:
e--3----2----1----3---
B--3----3----3----3---
G--0----0----0----0---
D--0----0----0----0---
A---------------------
E---------------------

at the last line of each verse, this progression is used:
e--3----2----1----0----0----3----2----3-
B--3----3----3----0----2----3----3----3-
G--0----0----0----0----0----0----0----0-
D--0----0----0----0----0----0----0----0-
A---------------------------------------
E---------------------------------------



the chorus is just switching between:
e--3---2----
B--3---3----
G--0---0----
D--0---0----
A-----------
E-----------


These are just the chords used, listen for the rhythm used on each.
This obviously is very very far from perfect, but it will give you a good idea. 

Dancehomer@aol.com



		   
AcordesyTabs.com © 2008 Acordes y Tablaturas para guitarra. Tabs and Chords for guitar. Aviso Legal - Contacto
El uso de este sitio está sujeto a la aceptación de los términos y condiciones (24 usuarios online)