tablaturas, partituras y acordes para guitarra
Busca por banda/artista:
 
y/o título de la canción:
A B C D E F G H I J K L M N O P Q R S T U V W X Y Z 0 1 2 3 4 5 6 7 8 9 / Top 100 tabs
Categorías
Usuarios
usuario:
Darse de alta
password:
Artistas más visitados
Publicidad
TOP acordes y tablaturas de Foo Fighters


Estás en: Inicio > Letra F > Acordes y tablaturas de Foo Fighters > Times Like These
Times Like These
de Foo Fighters
Puntúa este acorde/tab:      
(0.5/5)
Reportar este acorde/tab
  Añadir a tus favoritos
  Imprimir
Intro:
---------------------------------------
---55555---55555---555------------
---00000---00000---000------------
---55555---55555---555------------        x4                   
---00000---00000---000------------
---55555---55555---555------------

---------------------------------------
---------------------------------------
----------87-----87-------------------
------75-----75-----75---------------       x9
---00--------------------75-----------
---------------------------------------

Pre-Verse:
---------------------------------------
---55555---55555---555------------
---00000---00000---000------------
---55555---55555---555------------        x2
---00000---00000---000------------
---55555---55555---555------------

D                         Am                                 C
I, Im a one way motorway, Im the one that drives away 
           Em                  Pre-verse  
and follows you back home

D                            Am                              C
I, Im a streetlight shining, Im a white light blinding bright,
Em                       Pre-verse  
 burning off and on

        C                           Em              D
It's times like these you learn to live again
        C                            Em               D
It's times like these you give and give again
        C                           Em                D
It's times like these you learn to love again
        C                     Em                 Pre-verse  
It's times like these, time and time again

D                       Am                            C
I, Im a new day rising, Im a brand new sky 
               Em              Pre-verse  
to hang stars upon tonight

D                  Am                      C  
I, Im a little divided, do I stay or run away 
        Em              Pre-verse  
and leave it all behind?

    C                           Em              D
It's times like these you learn to live again
        C                            Em               D
It's times like these you give and give again
        C                           Em                D
It's times like these you learn to love again
        C                     Em                 D
It's times like these, time and time again


---------------------------------------
---------------------------------------
----------87-----87-------------------
------75-----75-----75---------------       x9
---00--------------------75-----------
---------------------------------------

    C                           Em              D
It's times like these you learn to live again
        C                            Em               D
It's times like these you give and give again        x3 (1st normal, 2nd really 
        C                           Em                D
It's times like these you learn to love again
        C                     Em                 D
It's times like these, time and time again


		   
AcordesyTabs.com © 2008 Acordes y Tablaturas para guitarra. Tabs and Chords for guitar. Aviso Legal - Contacto
El uso de este sitio está sujeto a la aceptación de los términos y condiciones (22 usuarios online)