tablaturas, partituras y acordes para guitarra
Busca por banda/artista:
 
y/o título de la canción:
A B C D E F G H I J K L M N O P Q R S T U V W X Y Z 0 1 2 3 4 5 6 7 8 9 / Top 100 tabs
Categorías
Usuarios
usuario:
Darse de alta
password:
Artistas más visitados
Publicidad
TOP acordes y tablaturas de Panda
:: Hola - Panda


Estás en: Inicio > Letra P > Acordes y tablaturas de Panda > Miércoles
Miércoles
de Panda
Puntúa este acorde/tab:      
(0.8/5)
Reportar este acorde/tab
  Añadir a tus favoritos
  Imprimir
Verso x4:(Ritmo SKA)
Cuentas lo que nos paso.....
--------------------------------------------------
--------------------------------------------------
---6-6-6-6--8-8-8-8-------------------------------
---6-6-6-6--8-8-8-8-------------------------------
---4-4-4-4--6-6-6-6-------------------------------
--------------------------------------------------

Post coro: ...Tratamos de arreglarlo pero todo fracaso.
(Y sigue esto)
--------------------------------------------------
--------------------------------------------------
---6-6-6-6-5-5-5-5--3-3-5-3-----------------------
---4-4-4-4-3-3-3-3--3-3-5-3-----------------------
---4-4-4-4-3-3-3-3--1-1-5-1-----------------------
--------------------------------------------------

Coro:(Abre los ojos mira al cielo)
--------------------------------------------------
--------------------------------------------------
--6-6-6-6-----------------------------------------
--6-6-6-6--6-6-6-6--8-8-8-8--6-6-6-6--------------
--4-4-4-4--6-6-6-6--8-8-8-8--6-6-6-6--------------
-----------4-4-4-4--6-6-6-6--4-4-4-4--------------

--------------------------------------------------
--------------------------------------------------
--6-6-6-6-----------------------------------------
--6-6-6-6--6-6-6-6--8-8-8-8--x-x6-x-x6------------
--4-4-4-4--6-6-6-6--8-8-8-8--x-x6-x-x6------------
-----------4-4-4-4--6-6-6-6--x-x4-x-x4------------

Al final del coro:(X 4)
--------------------------------------------------
--------------------------------------------------
--------------------------------------------------
--4-4-x-x-x-x-4-4-x-x-x-x-6/76-------------------
--4-4-x-x-x-x-4-4-x-x-x-x-6/76-------------------
--2-2-x-x-x-x-2-2-x-x-x-x-4/54-------------------

--------------------------------------------------
--------------------------------------------------
--------------------------------------------------
--4-4-x-x-x-x-4-4-x-x-x-x-2-2---------------------
--4-4-x-x-x-x-4-4-x-x-x-x-2-2---------------------
--2-2-x-x-x-x-2-2-x-x-x-x-0-0---------------------

Post Coro x4:(es miercoles, ponte feliz)
--------------------------------------------------
--------------------------------------------------
---6-6-6-6-5-5-5-5--3-3-5-3-----------------------
---4-4-4-4-3-3-3-3--3-3-5-3-----------------------
---4-4-4-4-3-3-3-3--1-1-5-1-----------------------
--------------------------------------------------
La parte de la guitarra acustica:
--------------------------------------------------
--------------------------------------------------
--6-----------------------------------------------
--6---6---8---6-----------------------------------
--4---6---8---6-----------------------------------
------4---6---4-----------------------------------

Abre tus ojos, mira al cielo.
--------------------------------------------------
--------------------------------------------------
--6-6-6-6-----------------------------------------
--6-6-6-6--6-6-6-6--8-8-8-8--6-6-6-6--------------
--4-4-4-4--6-6-6-6--8-8-8-8--6-6-6-6--------------
-----------4-4-4-4--6-6-6-6--4-4-4-4--------------

Final:
--------------------------------------------------
--------------------------------------------------
--------------------------------------------------
--4-4-x-x-x-x-4-4-x-x-x-x-6/76-------------------
--4-4-x-x-x-x-4-4-x-x-x-x-6/76-------------------
--2-2-x-x-x-x-2-2-x-x-x-x-4/54-------------------

--------------------------------------------------
--------------------------------------------------
--------------------------------------------------
--4-4-x-x-x-x-4-4---------------------------------
--4-4-x-x-x-x-4-4---------------------------------
--2-2-x-x-x-x-2-2---------------------------------

Arriba PANDA!
alguna duda o sugerencia infestador@hotmail.com
		   
AcordesyTabs.com © 2008 Acordes y Tablaturas para guitarra. Tabs and Chords for guitar. Aviso Legal - Contacto
El uso de este sitio está sujeto a la aceptación de los términos y condiciones (42 usuarios online)