tablaturas, partituras y acordes para guitarra
Busca por banda/artista:
 
y/o título de la canción:
A B C D E F G H I J K L M N O P Q R S T U V W X Y Z 0 1 2 3 4 5 6 7 8 9 / Top 100 tabs
Categorías
Usuarios
usuario:
Darse de alta
password:
Artistas más visitados
Publicidad
TOP acordes y tablaturas de Foo Fighters


Estás en: Inicio > Letra F > Acordes y tablaturas de Foo Fighters > Walking After You 3
Walking After You 3
de Foo Fighters
Puntúa este acorde/tab:      
(0.5/5)
Reportar este acorde/tab
  Añadir a tus favoritos
  Imprimir
--------------------------------------
***Strum,then A, then play B over:***
--------------------------------------
Tonight I'm tangled in my blanket of clouds,
dreaming aloud...
Things just won't do without you, matter of fact..
Oh wo hoh..I'm on your back...I'm on your back..
Oh wo hoh..I'm on your back...
------------
***Play A***
------------

------------------
***Play C over:***
------------------
If you walk out on me, I'm walking after you..
If you walk out on me, I'm walking after you..
------------
***Play A***
------------

------------------
***Play B over:***
------------------
If you'd accept surrender, I'll give up somemore..
Weren't you adored?
I cannot be without you, matter of fact..
Oh wo hoh..I'm on your back...I'm on your back..
Oh wo hoh..I'm on your back...
------------
***Play A***
------------

-------------------------------
***Play C, then bridge over:***
-------------------------------
If you walk out on me, I'm walking after you..
If you walk out on me, I'm walking after you..
------------------
***Play D over:***
------------------
Another heart is cracked in two..I'm on your back..oh woh..
----------
***A x3***
----------

---------------------------
***Play E, halfway sing:***
---------------------------
I cannot be without you, matter of fact..
Oh wo hoh..I'm on your back...
------------
***Play A***
------------

--------------------------------------
***Play C,F,C part 2,bridge,D over:***
--------------------------------------
If you walk out on me, I'm walking after you..
If you walk out on me, I'm walking after you..
If you walk out on me, I'm walking after you..
Another heart is cracked in two..I'm on your back..oh woh..
------------------------------------
***Play A x3, then 4x4xxx(ebgdaE)***
------------------------------------

Strum                                    Riff A
-----                                    ------
e|0---0-0---0-0-0-0---0-0---0-0-0|       e|0---2---2/4---0---5---4---2---0|
b|0---0-0---0-0-0-0---0-0---0-0-0|       b|-------------------------------|
g|1---1-1---1-1-1-1---1-1---1-1-1|       g|1---2---2/4---1---6---4---2---1|
d|2---2-2---2-2-2-2---2-2---2-2-2|       d|-------------------------------|
a|2---2-2---2-2-2-2---2-2---2-2-2|       a|-------------------------------|
E|0---0-0---0-0-0-0---0-0---0-0-0|       E|-------------------------------|

Riff B
------
e|4---4-------0-----0-----5-----------6---------5-----5-------5-------5-----4---
b|x---x---0-----0-----0---x---0---5-------5-----2---0-2---0-2---0-0-----0---0---
g|4---4-----4-----1-------6---------6-------6-----------------------------------
d|------------------------------------------------------------------------------
a|------------------------------------------------------------------------------
E|------------------------------------------------------------------------------

e|5---5-------------6-------5-----5-------------5-----5-----4---4-------0---0---
b|x---x---0---0-5-------5---x---0-x---0---0-0-----0-----0-------0---0-------0---
g|6---6-----------6-------6-6-----6-----------------------------------------1---
d|------------------------------------------------------------------------------
a|------------------------------------------------------------------------------
E|------------------------------------------------------------------------------

e|-------6---0-------5-------5-----5-----5--|
b|---7---7-------0-0-x---0-----0-----0-----0|
g|-------------------6----------------------|
d|------------------------------------------|
a|------------------------------------------|
E|------------------------------------------|

Riff C
------
e|2-----2-----2-----2-----2-----0-----0-----0-----0-----0---------0---0-2-0-----
b|x-------0-----0-----0-----0-----0-----0-----0-----0-----0---0-------------0---
g|3---3-----3-----3-----3-----------6-----6-------------------------------------
d|------------------------------------------------------------------------------
a|------------------------------------------------------------------------------
E|------------------------------------------------------------------------------
Riff C part 2                                             Bridge
-------------                                             ------
e|-------2-----2-----2-----0-----------0-----------0----| e|4---4---4---4|
b|---------0-----0-----0-----0---0-0-------0---0-------0| b|--0---0---0--|
g|---3-------3-----3-----3-----3------------------------| g|-------------|
d|------------------------------------------------------| d|-------------|
a|------------------------------------------------------| a|-------------|
E|------------------------------------------------------| E|-------------|

Riff D
------
e|0-----0-----0---0-----0-----------0------0-------------0------0------2-----0--
b|--0-----0-----0---0-----0-------0------0--------0--------0------0------0-----0
g|----6-----6---------6-----6----------------------------------------------3----
d|------------------------------------------------------------------------------
a|------------------------------------------------------------------------------
E|------------------------------------------------------------------------------

Riff E
------

e|2------2-----2-----2-----2------------4-----4----------4-----------5----------
b|x--------0-----0-----0-----0---0--------0----------0-------0---0---x---0---0--
g|3---3------3-----3-----3-----3------------4------------------------6-----6---6
d|------------------------------------------------------------------------------
a|------------------------------------------------------------------------------
E|------------------------------------------------------------------------------

e|5---5-------5-----5-----5--|
b|--0-----0-----0-----0-----0|
g|---------------------------|
d|---------------------------|
a|---------------------------|
E|---------------------------|

Riff F
------
e|0-----0-----0-----0-----0--|
b|--0-----0-----0-----0-----0|
g|----1-----1-----1-----1----|
d|---------------------------|
a|---------------------------|
E|---------------------------|
		   
AcordesyTabs.com © 2008 Acordes y Tablaturas para guitarra. Tabs and Chords for guitar. Aviso Legal - Contacto
El uso de este sitio está sujeto a la aceptación de los términos y condiciones (28 usuarios online)