tablaturas, partituras y acordes para guitarra
Busca por banda/artista:
 
y/o título de la canción:
A B C D E F G H I J K L M N O P Q R S T U V W X Y Z 0 1 2 3 4 5 6 7 8 9 / Top 100 tabs
Categorías
Usuarios
usuario:
Darse de alta
password:
Artistas más visitados
Publicidad
TOP acordes y tablaturas de Bonanza


Estás en: Inicio > Letra B > Acordes y tablaturas de Bonanza > Quiero abrazarte tanto
Quiero abrazarte tanto
de Bonanza
Puntúa este acorde/tab:      
(0.4/5)
Reportar este acorde/tab
  Añadir a tus favoritos
  Imprimir
INTRO: D D7

   G                   D                   A
E -3-5-5s7---3-5-5s7---2-3-3s5---2-3-3s5---0-2-2s3---0-2-2s3-3-
B -5-7-7s8---5-7-7s8---3-5-5s7---3-5-5s7---2-3-3s5---2-3-3s5-5-
G -------------------------------------------------------------
D -------------------------------------------------------------
A -------------------------------------------------------------
E -------------------------------------------------------------

   D       D7
E -2-3-5---7h5-3-2---------------------------------------------
B -3-5-7-------------------------------------------------------
G -------------------------------------------------------------
D -------------------------------------------------------------
A -------------------------------------------------------------
E -------------------------------------------------------------

   G                   D                   A                   D
E -3-5-5s7---3-5-5s7---2-3-3s5---2-3-3s5---0-2-2s3---0-2-2s3-3-2
B -5-7-7s8---5-7-7s8---3-5-5s7---3-5-5s7---2-3-3s5---2-3-3s5-5-3
G --------------------------------------------------------------
D --------------------------------------------------------------
A --------------------------------------------------------------
E --------------------------------------------------------------


E -5-4-5-2-0-2-------2-0---
B -------------3-2-3-----3-
G -------------------------
D -------------------------
A -------------------------
E -------------------------


D                                  D7              G
Siento tu mano fría viéndose el espacio sobre mi piel 
                                A
y tu pecho en mi pecho tu desnudez 
                            D
que ni lo reproches que imaginé

 D                                     D7              G
Vente conmigo al huerto que están las rosas queriendo ver 
                                  A
la promesa que has hecho para volver 
                              D                    A
y así creer en lo que les conté... dije que te quería...


E --------------------------------------------------------5-
B --------------------------------------------------------5-
G -2-4-2-0-2-0---0----------------------------------------6-
D -------------4---4-2-4-2-0-2-0---0----------------------7-
A -------------------------------4---4-2-4-2-0-2-0---0----7-
E -------------------------------------------------4------5-

                    D  D7
Como a nadie en el mundo
                G
Que seguía tus pasos tu caminar 
                 D
como un lobo en celo dejé mi hogar 
                 A
con la puerta abierta de par en par 
      D      D7
de par en par


               G
Que viví en penumbras nuestro rincón 
            D
en aquel salón 
                            A
con dos cubiertos y tu canción 
                           D
y con tus flores en el jarrón

           G                   D                   A
E -5-5-7-5-7---------------7-7-5---------------5-5-------------
B -----------8-8-8-7-5-5-5-------7-7-7-5-----------8-5-5-5-----
G ---------------------------------------7-7-7-------------7-6-
D -------------------------------------------------------------
A -------------------------------------------------------------
E -------------------------------------------------------------

           D
E -5-7-5---5-
B -------8---
G -----------
D -----------
A -----------
E -----------

           G                   D                   A
E -5-5-7-5-7---------------7-7-5---------------5-5-------------
B -----------8-8-8-7-5-5-5-------7-7-7-5-----------8-5-5-5-----
G ---------------------------------------7-7-7-------------7-6-
D -------------------------------------------------------------
A -------------------------------------------------------------
E -------------------------------------------------------------

           D
E -5-7-5-----
B -------8-7-
G -----------
D -----------
A -----------
E -----------


E -5-4-5-2-0-2-------2-0---
B -------------3-2-3-----3-
G -------------------------
D -------------------------
A -------------------------
E -------------------------

  D                               D7             G
Siento tu mano tibia que palmo a palmo besa mi piel 
                                   A
y tus brazos me enredan hoy como ayer 
                              D
en este nuevo día vuelvo a creer


 D                                   D7             G
Vente conmigo al huerto que hay una barca esperándonos 
                                  A
con tu nombre pintado secando al sol 
                              D                     A
y tu mano grabada junto al timón... sabes que te quiero...

E --------------------------------------------------------5-
B --------------------------------------------------------5-
G -2-4-2-0-2-0---0----------------------------------------6-
D -------------4---4-2-4-2-0-2-0---0----------------------7-
A -------------------------------4---4-2-4-2-0-2-0---0----7-
E -------------------------------------------------4------5-

                    D  D7
Como a nadie en el mundo
                G
Que seguía tus pasos tu caminar 
                 D
como un lobo en celo dejé mi hogar 
                 A
con la puerta abierta de par en par 
      D      D7
de par en par


               G
Que viví en penumbras nuestro rincón 
            D
en aquel salón 
                            A
con dos cubiertos y tu canción 
                           D
y con tus flores en el jarrón

G D A D D7
G D A D

  D                               D7                G
Quiero abrazarte tanto con mil sentidos con tanto amor 
                                     A
que no haya más sonido que no es de vos 
                          D
tu cuerpo y el mío a continuación


D                           D7             G
Yaparé la tierra como un Romeo buscando a dios 
                                A
y veré en tu regazo tu comprensión 
                             D                     A
y una casa pequeña para los dos... sabes que te quiero...

E --------------------------------------------------------5-
B --------------------------------------------------------5-
G -2-4-2-0-2-0---0----------------------------------------6-
D -------------4---4-2-4-2-0-2-0---0----------------------7-
A -------------------------------4---4-2-4-2-0-2-0---0----7-
E -------------------------------------------------4------5-

                    D  D7
Como a nadie en el mundo
                G
Que seguía tus pasos tu caminar 
                 D
como un lobo en celo dejé mi hogar 
                 A
con la puerta abierta de par en par 
      D      D7
de par en par


               G
Que viví en penumbras nuestro rincón 
            D
en aquel salón 
                            A
con dos cubiertos y tu canción 
            A7                D   G A D
y con tus flores... en el jarrón...
		   
AcordesyTabs.com © 2008 Acordes y Tablaturas para guitarra. Tabs and Chords for guitar. Aviso Legal - Contacto
El uso de este sitio está sujeto a la aceptación de los términos y condiciones (11 usuarios online)