tablaturas, partituras y acordes para guitarra
Busca por banda/artista:
 
y/o título de la canción:
A B C D E F G H I J K L M N O P Q R S T U V W X Y Z 0 1 2 3 4 5 6 7 8 9 / Top 100 tabs
Categorías
Usuarios
usuario:
Darse de alta
password:
Artistas más visitados
Publicidad
TOP acordes y tablaturas de Metallica


Estás en: Inicio > Letra M > Acordes y tablaturas de Metallica > Fight fire with fire
Fight fire with fire
de Metallica
Puntúa este acorde/tab:      
(0.1/5)
Reportar este acorde/tab
  Añadir a tus favoritos
  Imprimir

Song: Fight Fire with Fire
Band: MetallicA
Album: Ride The Lightning

Transcribed By Eros Fratini (e-r-o-s@libero.it)
Normal Tune
------------------------------ Bass Tab -------------------------------

Intro:
3/4 - beat 82                               2/4
|---------------------|-9-10-9h10p9---------|--------------|
|-9-----10-----12-----|------------12-10-p-9|--------------|
|---------------------|---------------------|--------------|
|---------------------|---------------------|12------10h12-|

3/4
|---------------------|---------------------|-9-10-9h10p9---------|
|---------------------|-------10-----12-----|------------12-10-p-9|
|---------------------|10-------------------|---------------------|
|10-------------------|---------------------|---------------------|

2/4            3/4 
|--------------|---------------------|---------------------|
|-9---------9--|---------------------|-------10-----12-----|
|--------------|12-------------------|10-------------------|
|--------------|---------------------|---------------------|

                      2/4            3/4
|-9-10-9h10p9---------|--------------|---------------------|
|------------12-10-p-9|--------------|-5-------------------|
|---------------------|-0---------0--|---------------------|
|---------------------|--------------|-3-------------------|

|---------------------|-9-10-9h10p9---------|
|-------10-----12-----|------------12-10-p-9|
|10-------------------|---------------------|
|---------------------|---------------------|

4/4
|--------------------------------|----14--12----------------------|
|--------------------------------|10----------15--14--------------|
|----------------10--------------|--------------------------------|
|12------------------------------|--------------------------------|

                                 Beat 184
|--------------------------------|--------------------------------|
|(14)----------------------------|--------------------------------|
|--------------------------------|--------------------------------|
|--------------------------------|-0------------------------------|

|--------------------------------|--------------------------------|
|----------- ---x3--- -----------|--------------------------------|
|--------------------------------|--------------------------------|
|--------------------------------|-------------3---------------2--|

|--------------------------------|--------------------------------|
|--------------------------------|--------------------------------|
|--------------------------------|--------------------------------|
|-------------3-------2-------2--|-------------3---------------2--|

|--------------------------------|
|--------------------------------|
|--------------------------------|
|-------------3-------2-------1--|

|Fig. 1
|--------------------------------|--------------------------------|
|*-------------------------------|--------------------------------|
|*-------------------------------|--------------------------------|
|-0-0-0-0-0-0-3---0-0-0-0-0-0-2--|-0-0-0-0-0-0-3---0-0-2---0-0-2--|

                                                           (Fig.1)|
|--------------------------------|--------------------------------|
|--------------------------------|-------------------------------*|
|--------------------------------|-------------------------------*|
|-0-0-0-0-0-0-3---0-0-0-0-0-0-2--|-0-0-0-0-0-0-3---0-0-2---0-0-1--|

|Fig.2A                                                   (Fig.2A)|
|--------------------------------|--------------------------------|
|*-------------------------------|-------------------------------*|x 3
|*-------------------------------|-------------------------------*|
|-0---3---5p0-0-0-3---0-0-2---3--|-0---3---5p0-0-0-2-------2------|

|Fig.2B                                                   (Fig.2B)|
|--------------------------------|--------------------------------|
|--------------------------------|--------------------------------|
|--------------------------------|--------------------------------|
|-0---3---5p0-0-0-3---0-0-2---3--|-0---3---5p0-0-0-2--------------|

Verse 1, 2, 3, 4:

    Repeat Fig.1 x 2
    Repeat Fig.2A
    Repeat Fig.2B

End Verse

Repeat Verse for second Verse then

Chorus:
|--------------------------------|--------------------------------|
|--------------------------------|--------------------------------|
|------------------1----2----1---|-1---1-1-1-1-1-1-1-1-1-1-1-1-1-1|
|--0----3----0-------------------|--------------------------------|

|--------------------------------|--------------------------------|
|--------------------------------|--------------------------------|
|------------------1----2----1---|-1---1-1-1-1-1-1-1-1-1-1-1-1-1-1|
|--0----3----0-------------------|--------------------------------|

|--------------------------------|--------------------------------|
|--------------------------------|--------------------------------|
|------------------1----2----1---|-1---1-1-1-1-1-1-1-1-1-1-1-1-1-1|
|--0----3----0-------------------|--------------------------------|

                                 * 2nd time to coda 1 
                                 * 3rd time to coda 2    
|--------------------------------|--------------------------------|
|--------------------------------|--------------------------------|
|------------------1----2----1---|-1------------------------------|
|--0----3----0-------------------|--------------------------------|

Repeat Fig.1 x 2

Repeat Verse for third Verse

Repeat Chorus

Coda 1:
|--------------------------------|--------------------------------|
|--------------------------------|--------------------------------|
|-1----------------5----3----2---|-0------------------------------|
|--------------------------------|--------------------------------|

|--------------------------------|-----------------5--------------|
|--------------------------------|-----3-/-5-h-7---------7----5---|
|(0)--------------------0----2---|-3------------------------------|
|------------------3-------------|--------------------------------|

|--------------------------------:
|(5)-----------------------------:
|------------------2---------0---:
|-----------------------3--------:

Guitar Solo:
|--------------------------------|
|*------------------------------*|x 3
|*------------------------------*|
|-0---0-0---0-0---0---0-0---0-0--|

6/4
|------------------------------------------------|
|------------------------------------------------|
|------------------------------------------------|
|-0---0-0---0-0---0---0-0---0-0---0---0-0---0-0--|

|------------------------------------------------|
|------------------------------------------------|
|-0---0-0---0-0---0---0-0---0-0---0---0-0---0-0--|
|------------------------------------------------|

4/4
|--------------------------------|--------------------------------|
|--------------------------------|--------------------------------|
|--------------------------------|--------------------------------|
|-3---3-3---3-3---3---3-3---3-3--|-2---2-2---2-2---2---2-2---2-2--|

|--------------------------------|
|*------------------------------*|x 3
|*------------------------------*|
|-0---0-0---0-0---0---0-0---0-0--|

6/4
|------------------------------------------------|
|------------------------------------------------|
|------------------------------------------------|
|-0---0-0---0-0---0---0-0---0-0---0---0-0---0-0--|

|------------------------------------------------|
|------------------------------------------------|
|-0---0-0---0-0---0---0-0---0-0---0---0-0---0-0--|
|------------------------------------------------|

4/4
|--------------------------------|--------------------------------|
|--------------------------------|--------------------------------|
|--------------------------------|--------------------------------|
|-3---3-3---3-3---3---3-3---3-3--|-2---2-2---2-2---2---2-2---2-2--|

|--------------------------------|--------------------------------|
|--------------------------------|--------------------------------|
|--------------------------------|--------------------------------|
|-0---2-------3---0---2-------3--|-0---2-------3---0---2---3------|

|--------------------------------|--------------------------------|
|--------------------------------|-------------------------------*|
|--------------------------------|-------------------------------*|
|-0---2-------3---0---2-------3--|-0---2-------3---0---2---3------|

                                                  5/4
|---------|---------|---------|---------|---------|-----------|
|---------|---------|---------|---------|--Guitar-|-----------|
|---------|---------|---------|---------|----x7---|-----------|
|-0-------|(0)------|(0)------|(0)------|---------|-----------|

Coda 2:
4/4
|--------------------------------|--------------------------------|
|--------------------------------|*------------------------------*|x 16
|-1---1-1-1-1-1-1-1-1-1-1-1-1-1-1|*-----------------1----2----1--*|
|--------------------------------|--0----3----0-------------------|

|--------------------------------|--------------------------------|
|--------------------------------|--------------------------------|
|-1------------------------------|--------------------------------|
|--------------------------------|-0------------------------------|

|--------------------------------|--------------------------------:
|--------------------------------|--------------------------------:
|-7--7--7--7------7--7--7--7-----|-7------------------------------:
|--------------------------------|--------------------------------: End



		   
AcordesyTabs.com © 2008 Acordes y Tablaturas para guitarra. Tabs and Chords for guitar. Aviso Legal - Contacto
El uso de este sitio está sujeto a la aceptación de los términos y condiciones (11 usuarios online)