tablaturas, partituras y acordes para guitarra
Busca por banda/artista:
 
y/o título de la canción:
A B C D E F G H I J K L M N O P Q R S T U V W X Y Z 0 1 2 3 4 5 6 7 8 9 / Top 100 tabs
Categorías
Usuarios
usuario:
Darse de alta
password:
Artistas más visitados
Publicidad
TOP acordes y tablaturas de Antonio Orozco


Quiero ser
de Antonio Orozco
Puntúa este acorde/tab:      
(0.7/5)
Reportar este acorde/tab
  Añadir a tus favoritos
  Imprimir
Le dedico esta cancion con mucho cariño 
a mi amiga Ingrid de Barcelona.




E---------------------------------------------
B---1-0---0------3-1-0^1^0--------------------
G-2-----0---0-2-------------------------------	= RIFF 1
D---------------------------------------------
A---------------------------------------------
E---------------------------------------------


E-5-----------------3--------------------------
B---1-0-1-0^1^0----1-3-1-0^1^0-----------------
G----------------------------------------------	= RIFF 2
D----------------------------------------------
A----------------------------------------------
E----------------------------------------------

EN VEZ DE TOCAR LOS ACORDES, SE PUEDEN TOCAR LOS RIFFS.

@@@@AQUI EMPIEZA RIFF 1@@@@

Am	Dm 	G
Quiero convertirme en vela 
G	Am	   Dm	    G
para iluminar tu mesa de noche.
Am	Dm 	G
Quiero convertirme en letras 
G	Am	          Dm       G
de ese libro que alimenta tus sueños.
Am	Dm 	G
Quiero despertar contigo 
G	Am	   Dm	    G
para regalarte claras del día.
Am	Dm 	G
Quiero ser el agua fresca
G	Am	   Dm	        G
que recorra tu cuerpo desnudo.

@@@@AQUI TERMINA RIFF 1@@@@

F F	   G G	  Em
Y ahora quiero ser tu espejo
F F	   G G	  Em
para ser el primero cada día.
F F	   G G	  Em
Y ahora quiero ser tu anhelo
F F	   G G	  Em
para no ser más un alma perdida.
Am*	Dm*	    G*	     C*
Quiero ser tu voz por sentir tu risa.
Am*	Dm*	G*  C* C*
Quiero ser el aire que respiras.
Am*	Dm*	    G*	     C*
Quiero ser carmín 'pa' vestir sonrisas.
Am*	Dm*	G*  C*		F  G   Em 
Quiero ser un día de tu vida.
Am	F       G   Em 
De tu vida...
Am     F        G   Em 
De tu vida...
Am	F        G   Em   Am
De tu vida...


E---------------------------------------------
B-0 deslizar a 5-5-5-3-3-1-0-0-1-1-0----------
G---------------------------------------------
D---------------------------------------------
A---------------------------------------------
E---------------------------------------------


E---------------------------------------------
B-0 deslizar a 5-5-5-3-3-1-0------------------
G---------------------------------2-----------
D---------------------------------------------
A---------------------------------------------
E---------------------------------------------

E---------------------------------------------
B-0 deslizar a 5-5-5-3-3-1-0-0-1-1-0----------
G---------------------------------------------
D---------------------------------------------
A---------------------------------------------
E---------------------------------------------

E---------------------------------------------
B-1-1-1-0-1-0---------------------------------
G----------------2-2 ~ ~ ---------------------
D---------------------------------------------
A---------------------------------------------
E---------------------------------------------



@@@@AQUI EMPIEZA RIFF 1@@@@

Am	Dm 	G
Quiero convertirme en vela
G	Am	      Dm         G
la del barco que llevaba tu nombre.

Am	Dm 	G
Quiero convertirme en letras
G	Am	         Dm	G
por que saben lo que tanto te quiero.

@@@@AQUI TERMINA RIFF 1@@@@

@@@@AQUI EMPIEZA RIFF 2@@@@

Am	Dm 	G
Quiero despertar contigo
G	Am	   Dm	    G
para recoger los besos perdidos.
Am	Dm 	G
Quiero ser el agua fresca
G	Am	   Dm	    G
la que tanto te envidiaba aquel día.

@@@@AQUI TERMINA RIFF 2@@@@

F F	   G G	  Em
Y ahora quiero ser tu espejo
F F	   G G	  Em
para ser el primero cada día.
F F	   G G	  Em
Y ahora quiero ser tu anhelo
F F	   G G	  Em
para no ser más un alma perdida.
Am*	Dm*	    G*	     C*
Quiero ser tu voz por sentir tu risa.
Am*	Dm*	G*  C* C*
Quiero ser el aire que respiras.
Am*	Dm*	    G*	     C*
Quiero ser carmín 'pa' vestir sonrisas.
Am*	Dm*	G*  C*		F  G   Em 
Quiero ser un día de tu vida.
Am	F       G   Em 
De tu vida...
Am     F        G   Em 
De tu vida...
Am	F        G   Em   Am
De tu vida...

E---------------------------------------------
B-0 deslizar a 5-5-5-3-3-1-0-0-1-1-0---------
G---------------------------------------------
D---------------------------------------------
A---------------------------------------------
E---------------------------------------------




E---------------------------------------------
B-0 deslizar a 5-5-5-3-3-1-0------------------
G---------------------------------2-----------
D---------------------------------------------
A---------------------------------------------
E---------------------------------------------


E---------------------------------------------
B-0 deslizar a 5-5-5-3-3-1-0-0-1-1-0---
G---------------------------------------------
D---------------------------------------------
A---------------------------------------------
E---------------------------------------------

E---------------------------------------------
B-1-1-1-0-1-0---------------------------
G----------------2-2 ~ ~ -----------------
D---------------------------------------------
A---------------------------------------------
E---------------------------------------------

RIFF 1
Quiero convertirme en mesa 
RIFF 1
donde entregas tus ideas de noche.

Am*	Dm*	    G*	     C*
Quiero ser tu voz por sentir tu risa.
Am*	Dm*	G*  C* C*
Quiero ser el aire que respiras.
Am*	Dm*	    G*	     C*
Quiero ser carmín 'pa' vestir sonrisas.
Am*	Dm*	G*  C*
Quiero ser un día de tu vida.
Am*	Dm*	    G*	     C*
Quiero ser tu voz por sentir tu risa.
Am*	Dm*	G*  C* C*
Quiero ser el aire que respiras.
Am*	Dm*	    G*	     C*
Quiero ser carmín 'pa' vestir sonrisas.
Am*	Dm*	G*  C*
Quiero ser un día de tu vida.




@@@@AQUIEMPIEZA RIFF 1@@@@

Am	Dm 	G		
Quiero convertirme en vela 
G	Am	   Dm	    G	
para iluminar tu mesa de noche.

@@@@AQUI TERMINA RIFF 1@@@@


Am* =   E-5---------			Dm* =   E--5--------
	B-5---------				B--6--------
	G-5---------				G--7--------
	D-7---------				D--7--------
	A-7---------				A--5--------	
	E-5---------				E--5--------

   G* = E-3---------			   C* = E--3--------
	B-3---------				B--5--------
	G-4---------				G--5--------
	D-5---------				D--5--------
	A-5---------				A--3--------	
	E-3---------				E--3--------
		   
AcordesyTabs.com © 2008 Acordes y Tablaturas para guitarra. Tabs and Chords for guitar. Aviso Legal - Contacto
El uso de este sitio está sujeto a la aceptación de los términos y condiciones (16 usuarios online)