tablaturas, partituras y acordes para guitarra
Busca por banda/artista:
 
y/o título de la canción:
A B C D E F G H I J K L M N O P Q R S T U V W X Y Z 0 1 2 3 4 5 6 7 8 9 / Top 100 tabs
Categorías
Usuarios
usuario:
Darse de alta
password:
Artistas más visitados
Publicidad
TOP acordes y tablaturas de Los Dandys


Estás en: Inicio > Letra L > Acordes y tablaturas de Los Dandys > Quinceañera
Quinceañera
de Los Dandys
Puntúa este acorde/tab:      
(0.7/5)
Reportar este acorde/tab
  Añadir a tus favoritos
  Imprimir
Esto es la parte del inicio


            D       D7          G     E7          A            D
            (                    Tremoleado                    ) 
E --5-5-5-3-2-2---2-10-10-9--10-7---7-12-12-10-10-9----7-5-7-3-2-------
B --7-7-7-5-3-3---3-12-12-10-12-8---8-14-14-12-12-10---8-7-8-5-3-------
G ---------------------------------------------------------------------
D ---------------------------------------------------------------------
A ---------------------------------------------------------------------
E ---------------------------------------------------------------------

Desde donde inicia el parentesis hasta donde termina, va tremoleado


Esto es la partde de en medio
            D       D7          G     E7          A      E7        A
            (                    Tremoleado                         ) 
E --5-5-5-3-2-2---2-10-10-9--10-7---7-12-12-10-10-9----9--12-12-10-9---
B --7-7-7-5-3-3---3-12-12-10-12-8---8-14-14-12-12-10---10-14-14-12-10--
G ---------------------------------------------------------------------
D ---------------------------------------------------------------------
A ---------------------------------------------------------------------
E ---------------------------------------------------------------------
		   
AcordesyTabs.com © 2008 Acordes y Tablaturas para guitarra. Tabs and Chords for guitar. Aviso Legal - Contacto
El uso de este sitio está sujeto a la aceptación de los términos y condiciones (281 usuarios online)