tablaturas, partituras y acordes para guitarra
Busca por banda/artista:
 
y/o título de la canción:
A B C D E F G H I J K L M N O P Q R S T U V W X Y Z 0 1 2 3 4 5 6 7 8 9 / Top 100 tabs
Categorías
Usuarios
usuario:
Darse de alta
password:
Artistas más visitados
Publicidad
TOP acordes y tablaturas de Menudo


Estás en: Inicio > Letra M > Acordes y tablaturas de Menudo > Quince Años
Quince Años
de Menudo
Puntúa este acorde/tab:      
(0.5/5)
Reportar este acorde/tab
  Añadir a tus favoritos
  Imprimir
Toquenla junto con la canción para que se guíen y lo saquen más rápido.
Saludos, cuidense!! ;) :) :D

Con Capo en el 1er. Traste

C		G		Am
Hoy tu recuerdo es tan claro	(Riff 1)
	F	       C		    G
que casi puedo olerte en mi piel	(Riff 2)
Am			   Em			   F
       nunca ha habido ni existido en mi corazón	     (Riff 3)
G	C
otro amor. (Riff 4)
 
Riff 1
e|----------------|
B|----------------|
G|-4/5-4----------|
D|-------5-5/7-5.-|
A|----------------|
E|----------------|

Riff 2
e|-----------------|
B|-8-6-5.----------|
G|--------7-5-7/9.-|
D|-----------------|
A|-----------------|
E|-----------------|
 
Riff 3
e|----------------|
B|-------3-4/5-6.-|
G|-2-4/5----------|
D|----------------|
A|----------------|
E|----------------|

Riff 4
e|-7/8-7.----------------------------|
B|--------8.—-5/6-5.-----------------|
G|-----------------------5.---6/7-5.-|
D|-------------------5/7----7--------|
A|-----------------------------------|
E|-----------------------------------|
 
C	     G		Am
     Eras siempre tan dulce (Riff 5)
     F	     C		G
tenías 15 años también	(Riff 6)
Am	      Em     F		C            F	               G
       y tus ojos,       cambiaron el color(Riff 7) a mi vida.

Riff 5
e|----------------|
B|----------------|
G|-2/4-5/4-2/0-2.-|
D|----------------|
A|----------------|
E|----------------|

Riff 6
e|--------------------|
B|-7/8-6-5/6/5-----5.-|
G|-------------7/5----|
D|--------------------|
A|--------------------|
E|--------------------|
 
Riff 7
e|----------------------|
B|-------5-5/6-5--------|
G|---5/7---------7-5-7.-|
D|-7--------------------|
A|----------------------|
E|----------------------|

Coro
	C	     G	   Am
Eran noches y días eternos
       Em	       F
pensando en tus labios
     C		G
amando con toda mi alma
	C	   G
eran tardes enteras
	Am	Em		F
buscando la forma de hacer
	    C		G	       C
los más bellos y eternos 15 años.

Solo 1
e|-------------------------------------------------------7/8-7.------------|
B|-5/6/5.----------3/5..—-5/6/5.---8--------8-8/10-8..---------8---8/10-8.-|
G|-------------5-5---------------7---7-7/9-----------------------9---------|
D|-------5-5/7-------------------------------------------------------------|
A|-------------------------------------------------------------------------|
E|-------------------------------------------------------------------------|

C		G	  Am
    No entendía tu distancia 	(Riff 8)
       F		  C	        G
no pude explicarme tu adiós	(Riff 9)
Am		Em	  F		C		    F				G
       desde entonces     solo en sueños llego a sentir  (Riff 10) sentir tus besos.

Riff 8
e|--------------------|
B|-5-5-6/5---------8.-|
G|---------7/5-7/9----|
D|--------------------|
A|--------------------|
E|--------------------|

Riff 9
e|------------------|
B|------------------|
G|---------2-4-4/5.-|
D|-2-3-5-5----------|
A|------------------|
E|------------------|
 
Riff 10
e|----------------|
B|---------5-6-8.-|
G|-----5-7--------|
D|-5-7------------|
A|----------------|
E|----------------|	

Coro
	C	     G	   Am
Eran noches y días eternos
       Em	       F
pensando en tus labios
     C		G
amando con toda mi alma
	C	   G
eran tardes enteras
	Am	Em		F
buscando la forma de hacer
	    C		G	       C
los más bellos y eternos 15 años.

Solo 2
e|---------------------------------------------5-----------------------
B|-5/6/5.----------------------------5/6-5---5-----8---5---------------
G|--------6/7-5------------------5-7-------7-----7---5-----7-----------
D|--------------7-5---------5..--------------------------7---7-5-5-5---
A|------------------7-5-5/7--------------------------------------------
E|---------------------------------------------------------------------

e|----------------7-10-8.--|
B|------------7/8----------|
G|-5-7/5-7/9---------------|
D|-------------------------|
A|-------------------------|
E|-------------------------|

Am		     Em    F	      C 
       Nunca ha habido     ni existido 
    F	 C		G
otro amor (Riff 11), tan grandeeeee.

Riff 11
e|-------------------------------|
B|-------------------------------|
G|---------5-7-9/10/9-7-5-7/9-7.-|
D|-----5-7-----------------------|
A|-5-7---------------------------|
E|-------------------------------|

(Cambia de tono el Coro)

	D	     A	   Bm
Eran noches y días eternos
       F#m	       G
pensando en tus labios
     D		A
amando con toda mi alma
	D	   A
eran tardes enteras
	Bm	F#m		G
buscando la forma de hacer
	    D		A	       D
los más bellos y eternos 15 años.
		   
AcordesyTabs.com © 2008 Acordes y Tablaturas para guitarra. Tabs and Chords for guitar. Aviso Legal - Contacto
El uso de este sitio está sujeto a la aceptación de los términos y condiciones (24 usuarios online)