tablaturas, partituras y acordes para guitarra
Busca por banda/artista:
 
y/o título de la canción:
A B C D E F G H I J K L M N O P Q R S T U V W X Y Z 0 1 2 3 4 5 6 7 8 9 / Top 100 tabs
Categorías
Usuarios
usuario:
Darse de alta
password:
Artistas más visitados
Publicidad
TOP acordes y tablaturas de Timbiriche


Mírame
de Timbiriche
Puntúa este acorde/tab:      
(0.5/5)
Reportar este acorde/tab
  Añadir a tus favoritos
  Imprimir
Pues este creo que es un buen inicio para
esta rola, asi que pues ahí esta, ocupenla
y creanme que se escuchara muy bien

**************** salU2 a todos ********************

e--5--7/9----2-2-2-2-4-5-5----------------------------------------
B----------------------------------5-5-5----5/7-7-7-5-3--2---2/3--
G-----------------------------------------------------------------
D-----------------------------------------------------------------
A-----------------------------------------------------------------
E-----------------------------------------------------------------

--2-2-2-2-4-5-5---------------------------5-
-------------------5-5-5----5/7-7-7-5-----5-
--------------------------------------7-6-6-
------------------------------------------7-
------------------------------------------7-
------------------------------------------5-




A)LA        MI		FA#m
  QUE DIFICIL TIEMPO PARA AMAR
   RE	           MI
  HEREDANDO MIEDO
                    LA
  DONDE SUEÑO LIBERTAD   
           MI          FA#m
  TENGO QUE CALLAR UNA VEZ MAS
    RE       MI
  MIS PALABRAS SOBRAN 
       LA
  DONDE HABLAN LOS DEMAS
 
          FA#m         Bb  
B)ME FALTA EDAD Y SIN EMBARGO
          RE
  NO SOY SOLO LA MITAD 
           MI 
  DE UN SENTIMIENTO

   RE          LA
C)SOY CAPAZ DE MI DESTINO
  MI         LA  
  SOY UN PUNTO EN EL CAMINO
  RE          MI
  LO QUE FUISTE ALGUNA VEZ

  -CORO-
  LA         MI
  MIRAME,SIENTEME
  RE         LA
  SOY DE CARNE Y HUESO
  RE       MI
  NO SOY UN REFLEJO
  RE           MI
  Y NO ES MALO LO QUE SIENTO
      RE              MI
  MIRA SOY CUESTION DE TIEMPO
  
  MIRAME,SIENTEME
  SOY DE CARNE Y HUESO
  NO SOY UN ESPEJO 
  OYE SOY MI PROPIO VUELO
  MIRA SOY CUESTION DE TIEMPO
  
A)QUE DIFICIL TIEMPO PARA AMAR
  SI ME OBLIGAS MIENTO 
  NO TE QUIERO LASTIMAR
  TENGO QUE CALLAR UNA VEZ MAS
  SOLO PENSAMIENTOS
  NO ES MOMENTO PARA HABLAR

B)ME FALTA EDAD Y SIN EMBARGO
  NO SOY SOLO LA MITAD 
  DE UN SENTIMIENTO

C)NO SOY ECO SOY SONIDO
  SOY UN PUNTO EN EL CAMINO
  LO QUE FUISTE ALGUNA VEZ

  -CORO- 
  MIRAME...
  
**este es el final***

  LA  RE  MI
  MIRAME...
  LA  RE  MI     LA.....
  SIENTEMEEEEEE-EEE.....

********************* U2 ***********************
 YA SABEN.. CUAL QUIER DUDA Y/O COMENTARIO
ESTOY PARA SERVIRLES.......
		   
AcordesyTabs.com © 2008 Acordes y Tablaturas para guitarra. Tabs and Chords for guitar. Aviso Legal - Contacto
El uso de este sitio está sujeto a la aceptación de los términos y condiciones (50 usuarios online)