tablaturas, partituras y acordes para guitarra
Busca por banda/artista:
 
y/o título de la canción:
A B C D E F G H I J K L M N O P Q R S T U V W X Y Z 0 1 2 3 4 5 6 7 8 9 / Top 100 tabs
Categorías
Usuarios
usuario:
Darse de alta
password:
Artistas más visitados
Publicidad
TOP acordes y tablaturas de Incubus


Estás en: Inicio > Letra I > Acordes y tablaturas de Incubus > Wish you were here
Wish you were here
de Incubus
Puntúa este acorde/tab:      
(0.4/5)
Reportar este acorde/tab
  Añadir a tus favoritos
  Imprimir

I wish you were here Capella.

Intro/Chorus
|-0------------------------------|
|-0------------------------------|
|-4----0-------------------------|
|-2----4-------------------------|
|------2------4------7------2----|
|-------------2------5------0----|

Verse
|------------------------------------------------|
|------------------------------------------10----|
|-9-11-9-11-9-11---------------------9-11--------|
|----------------11---9-11-9-11-9-11-------------|
|------------------------------------------------|
|------------------------------------------------|


		   
AcordesyTabs.com © 2008 Acordes y Tablaturas para guitarra. Tabs and Chords for guitar. Aviso Legal - Contacto
El uso de este sitio está sujeto a la aceptación de los términos y condiciones (31 usuarios online)