tablaturas, partituras y acordes para guitarra
Busca por banda/artista:
 
y/o título de la canción:
A B C D E F G H I J K L M N O P Q R S T U V W X Y Z 0 1 2 3 4 5 6 7 8 9 / Top 100 tabs
Categorías
Usuarios
usuario:
Darse de alta
password:
Artistas más visitados
Publicidad
TOP acordes y tablaturas de Chayanne


Estás en: Inicio > Letra C > Acordes y tablaturas de Chayanne > Quisiera ser
Quisiera ser
de Chayanne
Puntúa este acorde/tab:      
(0.8/5)
Reportar este acorde/tab
  Añadir a tus favoritos
  Imprimir
              Sol#M          Re#M          La#m     Sol#M   Re#M
e------4/6--4-------8--11-------------11------------------
B---4----------------------11-----11------9---------------
G---------------------------------------------10--8-------
D---------------------------------------------------------
A---------------------------------------------------------
E---------------------------------------------------------

 Sol#M    Re#M           La#m     Sol#M          Re#M
e--8--11-11-----------------------------------8-----------
B-------------9--8--------------8-9-9----9------11--------
G-------------------8--8--10-----------8------------------
D---------------------------------------------------------
A---------------------------------------------------------
E---------------------------------------------------------



     Fam                              Re#
Vivo al borde de un abismo solo por tu boca
                      La#m- 
voy siguiendote los pasos,
                         Sol#                                      
como un perro tras tus huellas
     Re#
me llevas.

   Fam                                 Re#
Soy la sombra de mi mismo, soy lo que no era,
                   Do#
solo por tenerte cerca
                  Sol#        Re#
se que haria lo q fuera, si pudiera.

(pre coro)
La#m         Do#           Fm    Re#
Y aunque yo viva en la mentira
La#m         Do#          Re#
se que sin ti no tengo vida.

Coro 
         Sol#                      Re#
Quiesiera ser la tierra sosteniendote
                     La#m
la seda que toca tu piel
        Do#             Sol#       Re#
quisiera ser el agua que calma tu sed.
         Sol#                 Re#
Quisiera ser el sol iluminandote
            
la brisa del otoño, 
 La#m           Do#               Sol#         Re#   
el tiempo que no pasa cuando estoy mirandote.


Siento el frio de la noche dentro de mi alma,
solo el roce de tus labios                                   
me trairian la calma, la calma.

Soy un naufrago en un mar de puros sentimientos
tus ojos son las estrellas
que me guiarán a puerto, a puerto.

(Sub coro)

(coro)

Fa          La#M
ehhhh,ehhhh


quisiera ser 
                Fa
el sol iluminandote
           Dom
quisiera ser 
Re#M            La#M        Fa
el agua que calma tu sed

 
Quisiera ser... 

ohhhhh, ohhhhh


(Se la dedico a todas las mujeres Lindas de Chile ojalá me 
escriban, 'tengo msn'.)
		   
AcordesyTabs.com © 2008 Acordes y Tablaturas para guitarra. Tabs and Chords for guitar. Aviso Legal - Contacto
El uso de este sitio está sujeto a la aceptación de los términos y condiciones (28 usuarios online)