tablaturas, partituras y acordes para guitarra
Busca por banda/artista:
 
y/o título de la canción:
A B C D E F G H I J K L M N O P Q R S T U V W X Y Z 0 1 2 3 4 5 6 7 8 9 / Top 100 tabs
Categorías
Usuarios
usuario:
Darse de alta
password:
Artistas más visitados
Publicidad
TOP acordes y tablaturas de Carnaval de Cadiz


Estás en: Inicio > Letra C > Acordes y tablaturas de Carnaval de Cadiz > Mira que papeleta
Mira que papeleta
de Carnaval de Cadiz
Puntúa este acorde/tab:      
(0.4/5)
Reportar este acorde/tab
  Añadir a tus favoritos
  Imprimir
Cifrado para Bandurria del tango.

( es asterisco al lado de un numero significa q va trineado :D )

** falseta **
                                         acordes 
1|--054--042---20---0-------------------------------------------
2|------------3----2-3--032---20--323-----2--3--2--3--2---------
3|---------------------------3------------3--2--3--2--3---------
4|--------------------------------------------------------------
5|--------------------------------------------------------------
6|--------------------------------------------------------------

1|--0542020*----------420-0-------0*--------0----1*0---0--------
2|------------2023*--3---3-3*--023---------1-1--1-----1-3*------
3|----------------------------------------3---------------------
4|---------------------------------------3----------------------
5|--------------------------------------------------------------
6|--------------------------------------------------------------

1|----------00310*---00005*578*753*356*531*134*3100*------------
2|-000130*--------------------------------------------320-------
3|-------------------------------------------------------3—-REM-
4|--------------------------------------------------------------
5|--------------------------------------------------------------
6|--------------------------------------------------------------

1|--0*20202*0----0420-020-------0*20----------------------------
2|-------------------3---32*2------320--------------------------
3|------------------------------------3----REM------------------
4|--------------------------------------------------------------
5|--------------------------------------------------------------
6|--------------------------------------------------------------

** TANGO **

1|--0*20202*0----0420-020-------05555744—4*444522---------------
2|-------------------3---32*2-----------------------------------
3|--------------------------------------------------------------
4|--------------------------------------------------------------
5|--------------------------------------------------------------
6|--------------------------------------------------------------

1|---0--0-0--0-0--02-----04444522—-2*222400------------0222240*-
2|--2-23-2-23-2-23—-3*------------------------0000023333--------
3|--------------------------------------------------------------
4|--------------------------------------------------------------
5|--------------------------------------------------------------
6|--------------------------------------------------------------

1|--011110-0*---011110-1*310*------02450--05544—0245*-----------
2|--------3-----------3---------023-----------------------------
3|--------------------------------------------------------------
4|--------------------------------------------------------------
5|--------------------------------------------------------------
6|--------------------------------------------------------------

1|----02020*----02020*----02020---0547*545420—0547*54545*-020---
2|--23--------23--------23-----------------------------------23*
3|--------------------------------------------------------------
4|--------------------------------------------------------------
5|--------------------------------------------------------------
6|--------------------------------------------------------------

1|-----0-0--------0-0------------0222240*-----------------------
2|--023-3-3*---023-3-3*--00023333-------------------------------
3|--------------------------------------------------------------
4|--------------------------------------------------------------
5|--------------------------------------------------------------
6|--------------------------------------------------------------

1|--01*1110-0*---01*1110-1310*--0200202*0--0200202*0—0200202*0*-
2|---------3------------3---------------------------------------
3|--------------------------------------------------------------
4|--------------------------------------------------------------
5|--------------------------------------------------------------
6|--------------------------------------------------------------

1|--0--02450---05544-0245*------0*------4445------45------------
2|---33-----------------------23--------------------------------
3|--------------------------------------------------------------
4|--------------------------------------------------------------
5|--------------------------------------------------------------
6|--------------------------------------------------------------

** Dedicada al coro y en especial a Juan A. León Madrid . q ha llevado una carga descomunal
y ha tenido q llevar a 40 tios pa lante. Dedicado a su labor como director **
		   
AcordesyTabs.com © 2008 Acordes y Tablaturas para guitarra. Tabs and Chords for guitar. Aviso Legal - Contacto
El uso de este sitio está sujeto a la aceptación de los términos y condiciones (25 usuarios online)