tablaturas, partituras y acordes para guitarra
Busca por banda/artista:
 
y/o título de la canción:
A B C D E F G H I J K L M N O P Q R S T U V W X Y Z 0 1 2 3 4 5 6 7 8 9 / Top 100 tabs
Categorías
Usuarios
usuario:
Darse de alta
password:
Artistas más visitados
Publicidad
TOP acordes y tablaturas de Silvio Rodriguez


Rabo de nube
de Silvio Rodriguez
Puntúa este acorde/tab:      
(0.1/5)
Reportar este acorde/tab
  Añadir a tus favoritos
  Imprimir
Ivan Dario Ospina Acosta
ivanzinhotrash@hotmail.com



Suena muy muy parecido a la version que Hizo 
en el mano a mano de Aute Y Silvio, las partes
que suenan fuera de tono son muy pocas, la hize lo mejor que pude, 
toda la cancion usa bucles, ¡disfrutenla!
                                                          
E||------------0--2-----3-----|-----0--------------------|
B||---------3--------3-----3--|--------3-----3-----2-----|
G||*-----2--------------------|-----------0-----0-----0--|
D||*--0-----------0-----------|--------------------------|
A||---------------------------|--1-----------------------|
E||---------------------------|--------------------------|


                                                                            
-----0-------------------|--------------------------|-------3----3---------|
--------3-----3----------|-----------1--3-----1-----|--0--------------0----|
-----------4-----4-------|--------0--------0-----2--|----------------------|
--------------------4----|-----2--------0-----------|----------------------|
--2----------------------|--0-----------------------|----------------------|
-------------------------|--------------------------|--3-------------------|


                                                      
-----------4--------------|--4--------------------2--|
--------4--------------6--|--------2-----------2-----|
-----4--------------4-----|-----------2-----2--------|
--6--------------6--------|--------------4-----------|
--------------4-----------|--------------------------|
--------------------------|-----2--------------------|


                                                                              
--0-----------------------|-------3----3----------|--------------------------|
-----------1--3-----1-----|--0--------------0--2--|-----------2--2-----------|
--------0--------0-----2--|-----------------------|--------2--------2--------|
-----2--------0-----------|-----------------------|-----0--------------0-----|
--0-----------------------|-----------------------|--------------------------|
--------------------------|--3--------------------|--3--------------------3--|


                                                                              
-----------2--5-----2-----|--0-----------------------|-------3----3----------|
--------2--------2-----2--|-----------1--3-----1-----|--0--------------0--2--|
-----2--------------------|--------0--------0-----2--|-----------------------|
--------------------------|-----2--------0-----------|-----------------------|
--------------------------|--0-----------------------|-----------------------|
--2-----------------------|--------------------------|--3--------------------|


                                                      
--------------------------|--------------------------|
-----------2--2-----------|-----------3--3-----------|
--------2--------2--------|-----2--4--------4--------|
-----0--------------0-----|--------------------4-----|
--------------------------|-----------------------0--|
--3--------------------3--|--2-----------------------|


                                                      
--------------------------|--------------------------|
--------2-----3-----2-----|-----------3--3-----------|
-----0-----0-----0-----0--|--------4--------4--------|
--------------------------|-----4--------------4-----|
--1-----------------------|--2--------------------0--|
--------------------------|--------------------------|


                                                            
--------------------0-----|-----------3-------2-------0----|
--------2-----3--------2--|--3------3-------3-------3---3--|
-----0-----0-----0--------|-------2-------2-------2--------|
--------------------------|--0--0-------0-------0----------|
--1-----------------------|--------------------------------|
--------------------------|--------------------------------|


                             
---------------------------||
-----2--------0--2--3--2---||
-----------3--------------*||
--------2-----------------*||
--1------------------------||
---------------------------||

ESCRIBANME AL E-MAIL, DUDAS O PREGUNTAS, ¡ESCRIBANME!
		   
AcordesyTabs.com © 2008 Acordes y Tablaturas para guitarra. Tabs and Chords for guitar. Aviso Legal - Contacto
El uso de este sitio está sujeto a la aceptación de los términos y condiciones (10 usuarios online)