tablaturas, partituras y acordes para guitarra
Busca por banda/artista:
 
y/o título de la canción:
A B C D E F G H I J K L M N O P Q R S T U V W X Y Z 0 1 2 3 4 5 6 7 8 9 / Top 100 tabs
Categorías
Usuarios
usuario:
Darse de alta
password:
Artistas más visitados
Publicidad
TOP acordes y tablaturas de Platero y Tú


Ramón
de Platero y Tú
Puntúa este acorde/tab:      
(0.1/5)
Reportar este acorde/tab
  Añadir a tus favoritos
  Imprimir
+ Tabulados de made in spain!                   +
+ (http://mades.kaos.es)                        +
+++++++++++++++++++++++++++++++++++++++++++++++++

Para las correcciones o dudas Boal00@teleline.es

- Parte inicial:
                            Lo subrayado 2 veces  

        [----------------------------------------------------------

	---------1-------1-------1-------1---------1---------1------
	-------1-------1-------1-------1---1-----1---1-----1---1----
	------------------------------------------------------------
	-----3-------3-------3-----3-2-------2-0-------0------------
	---3-------3-------3-----------------------------1----------
	------------------------------------------------------------

        ---------------------------------]   F

	---------1---------1---------1-------1----------------------
	-------1---1-----1---1-----1---1-----1----------------------
	-------------------------------------2----------------------
	-----------------------3-2-----------3----------------------
	---1-0-------0-3---------------------3----------------------
	-------------------------------------1----------------------

        P.M.        Esto emula al bajo (2 veces)

	------------------------------------------------------------
	-6-...------------------------------------------------------
	-5-...------------------------------------------------------
	-3-...------3333333-----------------------------------------
	--------------------3333333-5555555-------------------------
	------------------------------------6666666-----------------


	------------------------------------------------------------
	-6-6-6-6-6--------------------------------------------------
	-5-5-5-5-5-----5-5-5-5-5-----7-7-7-7-7-----3-3-3-3-3--------
	-3-3-3-3-3-----5-5-5-5-5-----7-7-7-7-7-----3-3-3-3-3--------
	---------------3-3-3-3-3-----5-5-5-5-5-----1-1-1-1-1--------
	------------------------------------------------------------


	------------------------------------------------------------
	-----------------------------------------------------------1
	------------3-3-x-x-3-5-5-5-5-5----------------0-0-2-2-3-3--
	--5-5-x-x-5-3-3-x-x-3-5-5-5-5-5------0-0-2-2-3--------------
	--5-5-x-x-5-1-1-x-x-1-3-3-3-3-3--3-3------------------------
	--3-3-x-x-3-------------------------------------------------

	Estribillo

	-------------------------5-----3-----5-----6-----5----------
	-6-6-----------6-6---------6-----5-----6-----6-----6--------
	-5-5-5-3--3-5--5-5-3-3-5-----5-----5-----5-----5-----5------
	-3-3-5-3--3-3--3-3-3-3-5------------------------------------
	-----3-1--1-3------1-1-3------------------------------------
	------------------------------------------------------------

	-6-----5----------------------------------------------------
	---6-----6-----8-8-----------8-8----------------------------
	-----5-----5---7-7-7-5--5-7--7-7-5-5-7----------------------
	---------------5-5-7-5--5-7--5-5-5-7-7----------------------
	-------------------5-3--3-5------7-7-5----------------------
	------------------------------------------------------------
		   
AcordesyTabs.com © 2008 Acordes y Tablaturas para guitarra. Tabs and Chords for guitar. Aviso Legal - Contacto
El uso de este sitio está sujeto a la aceptación de los términos y condiciones (37 usuarios online)