tablaturas, partituras y acordes para guitarra
Busca por banda/artista:
 
y/o título de la canción:
A B C D E F G H I J K L M N O P Q R S T U V W X Y Z 0 1 2 3 4 5 6 7 8 9 / Top 100 tabs
Categorías
Usuarios
usuario:
Darse de alta
password:
Artistas más visitados
Publicidad
TOP acordes y tablaturas de Rondalla del Amor de Saltillo


Mitad tú, mitad yo
de Rondalla del Amor de Saltillo
Puntúa este acorde/tab:      
(0.2/5)
Reportar este acorde/tab
  Añadir a tus favoritos
  Imprimir
   Esta canción tiene un bajeo en el estribillo, pero puse su equivalente en la 
guitarra. Versión del disco:


   Requinto (solo son las tres primeras cuerdas):

            C               Em                 A7            Dm             F     
G-----------------------------------------------------------------------------------
B-----------------------------------------------------------------------------------
e-0-1-1_3-1-0-3---0-1-3-1-0-1_3-3---3-5-6-5-3-3_5---5-5-3-1-0-1---1-3-5-3-1-3_4-4---


    Fm     C          A7    Dm      G7      C
G-----------------------------------------------------------------------------------
B-----------------------------------------------------------------------------------
e-4-6-4-6-4-4-3---3-5-3-5-3-3-1---1-3-1-3-1-0-0-1-3-3_5-3-1-0-----------------------


                     C    C7                 F
   Quiero ver jugueteando, por las piezas y patios,
              G            F         C
un muñeco de carne, mitad tú, mitad yo,
                         C7                F
que lleve en sus cabellos, el color de tu pelo,
                  C   A7            Dm        G7         C
y en sus ojos de cielo la mirada piadosa que Dios me regaló.



   Requinto # 1:
            C     C7          F                G        F        C
G----------------------------------------------------------------------------------
B----------------------------------------------------------------------------------
e-0-1-2-1-0-1_3-0---0-1-3-1-0-8-5---8-8-8-10-8-7-3---7-7-5---5-5-3-----------------

   Requinto # 2(acompañamiento del 1er requinto):
G-----------------------------------------------------------------------------------
B----------10-----------------7----------------8---------7-------5------------------
e-----------8-----------------5----------------7---------5-------3------------------

   Poema: 'Quiero ver... jugueteando... ahora y siempre y por vida...
         un muñeco de carne mitad tú... mitad yo...'


                       C     C7                  F
   Que lleve en sus mejillas, la humedad de tus besos,
                 C      A7                     Dm  G7               C 
y en su boca el perfume... y en su boca el perfume  que tu seno le dió.


                      G7*                        C   A7
   Quiero ver que me busca, quiero ver que me espera,
        E-------------3-------------
        A--3---2---0----------------
        D---------------------------
        G---------------------------
        B---------------------------
        e---------------------------
                    Dm    G7              C
quiero sentir su abrazo cuando me vea llegar,
                G7*                  C    A7
quiero me diga cosas y me cuente mentiras,
    E-----------3---------------
    A--3---2-0------------------
    D---------------------------
    G---------------------------
    B---------------------------
    e---------------------------
                  Dm      G7              C
quiero que me consuele, cuando me vea llorar.



   Requinto (solo son las tres primeras cuerdas):

            C               Em                 A7            Dm             F     
G-----------------------------------------------------------------------------------
B-----------------------------------------------------------------------------------
e-0-1-1_3-1-0-3---0-1-3-1-0-1_3-3---3-5-6-5-3-3_5---5-5-3-1-0-1---1-3-5-3-1-3_4-4---


    Fm     C          A7    Dm      G7      C
G-----------------------------------------------------------------------------------
B-----------------------------------------------------------------------------------
e-4-6-4-6-4-4-3---3-5-3-5-3-3-1---1-3-1-3-1-0-0-1-3-3_5-3-1-0-----------------------

   Poema: 'Quiero despues morirme, 
        sabiendo que te queda, un muñeco de carne mitad tú, mitad yo....
        que lleve en sus cabellos el color de tu pelo, y en sus ojos de cielo,
        la mirada piadosa que Dios me regaló...'


                     C    C7                 F
   Quiero despues morirme, sabiendo que te queda
G------------------------------------------------------------------------
B--------------------10----------------------7---------------------------
e---------------------8----------------------5---------------------------
              G           F         C
un muñeco de carne mitad tú, mitad yo,
G-------------------------------------------------------------------------
B-------------8-----------7---------5-------------------------------------
e-------------7-----------5---------3-------------------------------------
                          C7                F
que lleve en sus cabellos   el color de tu pelo, 
                   C   A7             Dm        G7       C
y en sus ojos de cielo, la mirada piadosa que Dios me regaló.



                      G7*                        C   A7
   Quiero ver que me busca, quiero ver que me espera,
        E-------------3-------------
        A--3---2---0----------------
        D---------------------------
        G---------------------------
        B---------------------------
        e---------------------------
                    Dm    G7              C
quiero sentir su abrazo cuando me vea llegar,
                G7*                  C    A7
quiero me diga cosas y me cuente mentiras,
    E-----------3---------------
    A--3---2-0------------------
    D---------------------------
    G---------------------------
    B---------------------------
    e---------------------------
                  Dm                         G7              
quiero que me consuele... quiero que me consuele...
                                           G------
                                           B--8---
                                           e--7---
                  C
cuando me vea llorar.
               G----------------------------------------
               B----------------------------------------
               e----0-1-3-1-0-1_3-3---0-1-3-1-0-1_3-----




   Yo uso este tono que es el que me suena más parecido en el estribillo:
    EADGBe
G7* 320001
   Dedicada a mi noviecita Carmen (M.C.V.M.) quien vino a darle sentido a mi vida
otra vez... muchas gracias chiquilla... T.Q.M.
   Dudas, sugerencias y comentarios a mis correos...
		   
AcordesyTabs.com © 2008 Acordes y Tablaturas para guitarra. Tabs and Chords for guitar. Aviso Legal - Contacto
El uso de este sitio está sujeto a la aceptación de los términos y condiciones (33 usuarios online)