tablaturas, partituras y acordes para guitarra
Busca por banda/artista:
 
y/o título de la canción:
A B C D E F G H I J K L M N O P Q R S T U V W X Y Z 0 1 2 3 4 5 6 7 8 9 / Top 100 tabs
Categorías
Usuarios
usuario:
Darse de alta
password:
Artistas más visitados
Publicidad
TOP acordes y tablaturas de Ricardo Arjona


Estás en: Inicio > Letra R > Acordes y tablaturas de Ricardo Arjona > Realmente no estoy tan solo
Realmente no estoy tan solo
de Ricardo Arjona
Puntúa este acorde/tab:      
(0.4/5)
Reportar este acorde/tab
  Añadir a tus favoritos
  Imprimir
Este Intro es Fácil, solamente tratando de 
encajar lo que les pongo y los tiempos de la canción.


 F        C       A#         C          
|1--------0---------------------------|
|--1--------1---------3--------6---5--|
|----2--------0--------3--------5-----|
|-----------------------3--------5----|
|------------------------------3------|
|1--------3---------1-----------------|
|

 F         A#         C       F   
|-----3-1--6-5---8-6---------------3--|
|--1--------1------------------1------|
|--2----------0-----------------2-----|
|--3-----------------------------3----|
|--------3----------------------------|
|---------3---------------------------|





 F                        C          
me tomo un café con tu ausencia

|------3--1--------------3------------|
|--1------------------1----3----------|
|----2-----------------0--0-----------|
|------3----------------3-------------|
|---------------------3---------------|
|1--------3---------------------------|
           A#
...y le enciendo un cigarro a la nostalgia

|---------6----------3----------1-----|
|--------3-------------1---------1----|
|--------3---------------3--------2---|
|--------3-----------------3-------3--|
|--------------------1----------1-----|
|-------------------------------1-----|

le doy un beso en el cuello a tu espacio...vacío

|-1----3---------------3-----------3-----------3|
|--1----------------1--------------3------1-----|
|---2----------------0-------------3--------2---|
|----3----------------3------------3----------3-|
|-------------------3------------1--------------|
|-1---------------------------------------------|



y así sigue toda antes del coro, que es lo armonioso.
ojalá les guste.
		   
AcordesyTabs.com © 2008 Acordes y Tablaturas para guitarra. Tabs and Chords for guitar. Aviso Legal - Contacto
El uso de este sitio está sujeto a la aceptación de los términos y condiciones (28 usuarios online)