tablaturas, partituras y acordes para guitarra
Busca por banda/artista:
 
y/o título de la canción:
A B C D E F G H I J K L M N O P Q R S T U V W X Y Z 0 1 2 3 4 5 6 7 8 9 / Top 100 tabs
Categorías
Usuarios
usuario:
Darse de alta
password:
Artistas más visitados
Publicidad
TOP acordes y tablaturas de Gamma Ray


Estás en: Inicio > Letra G > Acordes y tablaturas de Gamma Ray > Valley Of The Kings
Valley Of The Kings
de Gamma Ray
Puntúa este acorde/tab:      
(0.7/5)
Reportar este acorde/tab
  Añadir a tus favoritos
  Imprimir
          Valley of the kings
  -----------------------
     by Gamma Ray




From album "Somewhere out in space"
Tab by Sami Rikala 


tune ˝ down

|---b---------------------------------------------------------------------------
|--13~--------13--b------------------------------------------------------------
|-----------------12------------------------------------------------------------
|----------------------------7-------3-------5----------------7-------3-------5-
|----------------------------5-------1-------3-------/8---7---5-------1-------3-
|-------------------------------------------------------------------------------



verse 1
riff
|-------------------------------------------------------------------------------
|-------------------------------------------------------------------------------
|-------------------------------------------------------------------------------
|-------------------------------------------------------------------------------
|---7---7-----------3---3-----------5---5-----------7---7-----------3---3-------
|---5---5-----------1---1---------x-3---3-----------5---5-----------1---1-------



               P.m......................|
|-------------------------------------------------------------------------------
|-------------------------------------------------------------------------------
|-------------------------------------------------------------------------------
|---5--(5)----5---7---9--(9)----------------------------------------------------
|---3--(3)----3---5---7--(7)-----7-8-5-7-3-5-2-3---2-----5--5-------------------
|------------------------------------------------5---3-5-3--3-------------------


chorus
  In the valley of the kings........
|-------------------------------------------------------------------------------
|-------------------------------------------------------------------------------
|-------------------------------------------------------------------------------
|--------------------------------------------------------------------------5----
|------7----5----7--------7---9--10---3---5-----7--5--7----5----7----7--7--3---3
|------5----3----5--------5---7---8---1---3-----5--3--5----3----5----5--5------1


|-------------------------------------------------------------------------------
|-------------------------------------------------------------------------------
|-------------------------------------------------------------------------------
|---7----------3----------5----------7----------3----------5--------------------
|---5----------1----------3----/8-7--5----------1----------3--------------------
|-------------------------------------------------------------------------------



verse 2
chorus


2x
|-------------------------------------------------------------------------------
|-------------------------------------------------------------------------------
|-------------------------------------------------------------------------------
|------9-------9-------9---7-7-7-------9-------9---------9-8---7----------------
|--7-7-7---7-7-7---7-7-7---5-5-5---7-7-7---7-7-7--7-9-10-----9---8--------------
|-------------------------------------------------------------------------------



solo1 (Kai)
 
|------b-- b1˝-----------------b˝------b˝---------------------------------------
|-----15---15---15~---15-17-18-17---17----17-p-13---------b--------------b------
|--------------------------------------------------12~---12-12-10-9--12-10------
|---------------------------------------------------------------------------12--
|-------------------------------------------------------------------------------
|-------------------------------------------------------------------------------



|-------------------------------------------------------------------------------
|-------------------------------------------------------------------------------
|-------------------------------------------/10~-9~-----------------------------
|-------10-------------------------10----10-------------------------------------
|-12-10----12-10-8-10-8----8-10/12----12----------------------------------------
|-----------------------10------------------------------------------------------



|-------------------------------------------------------------------------------
|-----------------5-6-5----------------------------------5-6-5------------------
|--2---2-4-5-4--2-------7-5-4-5-4h5p4-----2---2-4-5-4--2-------7-5-4-5-4h5p4----
|----2--------------------------------5-----2--------------------------------5--
|-------------------------------------------------------------------------------
|-------------------------------------------------------------------------------




 Guitar 1
|-------------------------------------------------------------------------------
|----------------7-8-7---------------------------------7-8-7--------------------
|--4---4-6-7-6-4-------9-7-6-7-6h7p6-----4---4-6-7-6-4-------9-7-6--------------
|----4-------------------------------7-----4------------------------------------
|-------------------------------------------------------------------------------
|-------------------------------------------------------------------------------
|   |
|   |
|   |
|Guitar 2              b˝                 b˝            |
|-----------b˝------14-14-14-12----------------------------------b˝-------14-14-
|12---12-14-14-14-12------------15-14-15-14h15p14----12----12-14-14-14-12-------
|---11--------------------------------------------14----11----------------------
|-------------------------------------------------------------------------------
|-------------------------------------------------------------------------------
|-------------------------------------------------------------------------------



solo2 (Kai)

    Bar     Bar                  Bar               Bar           Bar         
|----b---------------12h15p12h15p12h15p12h15p12h15p12h15p12h15p12h15p12h15p12h15
|---/15------b------------------------------------------------------------------
|----------/14-----------------------------------------------------------------
|-------------------------------------------------------------------------------
|-------------------------------------------------------------------------------
|-------------------------------------------------------------------------------



   b    b    b   1˝b
|------------------10--------------------14---16---18---19----------------------
|--9-10-12-10-9-10----10-9h10p9-------------------------------------------------
|-------------------------------10-7~-------------------------------------------
|-------------------------------------------------------------------------------
|-------------------------------------------------------------------------------
|-------------------------------------------------------------------------------


        
solo3 (Henjo)
    a.h
|-b-^r-^b--7--b-----------------------------------------------------------------
|10-10-10----10---12-10-------10---------11---b--r--------------b˝-------b˝-----
|-----------------------11-10----11-108-----10^10-8-10-8-------8--------10-10-8
|---------------------------------------------------------10-8----10-8----------
|----------------------------------------------------------------------10-------
|-------------------------------------------------------------------------------



|----------------------15h19p15h19p15--b----------------------------------------
|----------------16-19----------------18~---------------------------------------
|----------14-17----------------------------------------------------------------
|----13-16----------------------------------------------------------------------
|-------------------------------------------------------------------------------
|-------------------------------------------------------------------------------


2x
|---15--15--15-15--15--15-15-15-15-15-15-15--15--15-15--15--15--15-15-15-15-15-1
|---13--13--13-13--13--13-13-13-13-13-13-13--13--13-13--13--13--13-13-13-13-13-1
|-------------------------------------------------------------------------------
|-------------------------------------------------------------------------------
|-------------------------------------------------------------------------------
|-------------------------------------------------------------------------------


|-------------------------------------------------------------------------------
|-------------------------------------------------------------------------------
|-------------------------------------------------------------------------------
|---8--(8)------8----10----12---(12)--------------------------------------------
|---6--(6)------6-----8----10---(10)--------------------------------------------
|-------------------------------------------------------------------------------



chorus

end










		   
AcordesyTabs.com © 2008 Acordes y Tablaturas para guitarra. Tabs and Chords for guitar. Aviso Legal - Contacto
El uso de este sitio está sujeto a la aceptación de los términos y condiciones (29 usuarios online)