tablaturas, partituras y acordes para guitarra
Busca por banda/artista:
 
y/o título de la canción:
A B C D E F G H I J K L M N O P Q R S T U V W X Y Z 0 1 2 3 4 5 6 7 8 9 / Top 100 tabs
Categorías
Usuarios
usuario:
Darse de alta
password:
Artistas más visitados
Publicidad
TOP acordes y tablaturas de La Vela Puerca


Rebuscado
de La Vela Puerca
Puntúa este acorde/tab:      
(0.5/5)
Reportar este acorde/tab
  Añadir a tus favoritos
  Imprimir
Afinacion: E A D G

Intro                  x4
G|-----------------------|
D|-----------------------|
A|-2~--4~--5~--4~--4-5-4-|
E|-----------------------|

Pre verso 1
G|-------------------------------|---------------------------|
D|-------------------------------|-----------2-------------.-|
A|-2-0---5-4-------2-0---5-4-----|-2-0---5-4---5-4-2-0---5-4-|
E|-----2-----5-2-5-----2-----5-2-|-----2---------------2-----|

Verso (...'Todas las cosas que salgo a buscar...')
                                 x2                    
G|---------------------------------|-----------------| 
D|---------------------------------|---4-2-----------|  |X2
A|-2---2---4---4---2---2-----4---4-|-2-----5-----4---|  |
E|---2---2---2---2---2---2-2---2---|---------2-5---5-| /
                               ________________  _______________________
			          /1.	               /2.
G|---------------------------|-----------------|-----------------------|
D|---------------------5-----|-----------------|-----------------------|
A|-7-7-7-5-7-7-7-7-5-7---7-5-|-2---2---2---2---|-----------------------|
E|---------------------------|---2---2---2---2-|-7--5-7-5-777-5-7-5-2~-|

Pre verso 2
G|-------------------------------|--------------------------------|
D|-------------------------------|-----------2--------------------|
A|-2-0---5-4-------2-0---5-4-----|-2-0---5-4---5-4-2-0---0-2-0---0|
E|-----2-----5-2-5-----2-----5-2-|-----2---------------2-------2--|

Verso
G|---------------------------------|-----------------| 
D|---------------------------------|---4-2-----------|  |X2
A|-2---2---4---4---2---2-----4---4-|-2-----5-----4---|  |
E|---2---2---2---2---2---2-2---2---|---------2-5---5-| /
                               ________________  _______________________
			          /1.	               /2.
G|---------------------------|-----------------|-----------------------|
D|---------------------5-----|-----------------|-----------------------|
A|-7-7-7-5-7-7-7-7-5-7---7-5-|-2---2---2---2---|-----------------------|
E|---------------------------|---2---2---2---2-|-7--5-7-5-777-5-7-5-2~-|

DESPUES DE QUE GRITA ...'Vamo' arriba hermano, che...' EL VERSO CAMBIA
Y HACE ESTO:
                                 X3 
G|---------------------------------|---------------------------------| 
D|---------------------------------|-----------4-2-------------------|  
A|-2---2---4---4---2---2-----4---4-|-2---2---2-----5-2---2-------4-5-|  
E|---2---2---2---2---2---2-2---2---|---2---2-----------2---2-2-5-----|
                               ________________  _______________________
			          /1.	               /2.
G|---------------------------|-----------------|-----------------------|
D|---------------------5-----|-----------------|-----------------------|
A|-7-7-7-5-7-7-7-7-5-7---7-5-|-2---2---2---2---|-----------------------|
E|---------------------------|---2---2---2---2-|-7--5-7-5-777-5-7-5-2~-|

Final
G|-------------------------------|--------------------------------------|
D|-------------------------------|-----------2--------------------------|
A|-2-0---5-4-------2-0---5-4-----|-2-0---5-4---5-4-2-0---5-4----------2~|
E|-----2-----5-2-5-----2-----5-2-|-----2---------------2----------------|
		   
AcordesyTabs.com © 2008 Acordes y Tablaturas para guitarra. Tabs and Chords for guitar. Aviso Legal - Contacto
El uso de este sitio está sujeto a la aceptación de los términos y condiciones (15 usuarios online)