tablaturas, partituras y acordes para guitarra
Busca por banda/artista:
 
y/o título de la canción:
A B C D E F G H I J K L M N O P Q R S T U V W X Y Z 0 1 2 3 4 5 6 7 8 9 / Top 100 tabs
Categorías
Usuarios
usuario:
Darse de alta
password:
Artistas más visitados
Publicidad
TOP acordes y tablaturas de Ismael Serrano


Recuerdo
de Ismael Serrano
Puntúa este acorde/tab:      
(0.4/5)
Reportar este acorde/tab
  Añadir a tus favoritos
  Imprimir
Tabulado enviado por:  Pablo Herrero Poza 
no dudeis en mandar vuestros mensajes a pahepoz@yahoo.es 

INTRO:
      I
E|--------2-3-2-----------------0---------0-------------|
B|---------------3-----------2---------2-----3--2-------|
G|-----2------------2-----0------------------------2--4-|
D|--0---------------------------------------------------|
A|---------------------4------------2-------------------|
E|------------------------------------------------------|

      II
E|------------0--------------0----------------------------------------------------|
B|---------3--------------0--------------3--2--0--------0---------0--------0----*-|
G|------2---------------2-------------2--------------2---------2--------2-----2---|
D|---0---------------2-------------0--------------0--------0---------0------------|
A|----------------0-------------------------------------------------------------*-|
E|-3----------------------------2--------------3----------------------------------|

I y II (dos veces)

Me levanto temprano, moribundo,
perezoso resucito, bienvenido al mundo
con noticias asesinas me tomo el desayuno.

Camino del trabajo en el metro
aburrido vigilo las caras de los viajeros
compañeros en la rutina y en los bostezos.

Bm			       F#m				
Y en el asiento de enfrente un rostro de repente		
G                A								
claro ilumina el vagón.						
Bm			       F#m				
Esos gestos traen recuerdos de otros paisajes, otros tiempos,	
G	              F#m         G				
en los que una suerte mejor me conoció.				

No me atrevo a decir nada, no estoy seguro
aunque esos ojos sin duda son los tuyos
más cargados de nostalgia,quizás más oscuros.

Pero creo que eres tú y estás casi igual
tan hermosa como entonces, quizás más
sigues pareciendo la chica más triste de la ciudad.

Cuánto tiempo ha pasado desde los primeros errores,
del interrogante en tu mirada.
La ciudad gritaba, maldecía nuestros nombres,
jóvenes promesas no, no teníamos nada.

Dejando en los portales los ecos de tus susurros,
buscando cualquier rincón sin luz.
'Agárrate de mi mano que tengo miedo del futuro',
y detras de cada huida estabas tú, estabas tú.

En las noches vacías en que regreso
solo y malherido todavía me arrepiento
de haberte arrojado tan lejos de mi cuerpo.

Y ahora que te encuentro veo que aún arde
la llama que encendiste. Nunca, nunca es tarde
para nacer de nuevo, para amarte.

Debo decirte algo antes de que te bajes
de este sucio vagón y quede muerto.
Mirarte a los ojos y tal vez recordarte
que antes de rendirnos fuimos eternos.

Me levanto decidido y me acerco a tí
y algo en mi pecho se tensa y se rompe:
'Cómo estás, cuánto tiempo, te acuerdas de mí',
y una sonrisa tímida responde:

'Perdone pero creo que se ha equivocado'.
'Disculpe señorita, me recuerda tanto
a una mujer que conocí hace ya algunos años'.

Más viejo, más cansado vuelvo a mi asiento,
aburrido vigilo las caras de los viajeros,
compañeros en la rutina y en los bostezos.
		   
AcordesyTabs.com © 2008 Acordes y Tablaturas para guitarra. Tabs and Chords for guitar. Aviso Legal - Contacto
El uso de este sitio está sujeto a la aceptación de los términos y condiciones (13 usuarios online)