tablaturas, partituras y acordes para guitarra
Busca por banda/artista:
 
y/o título de la canción:
A B C D E F G H I J K L M N O P Q R S T U V W X Y Z 0 1 2 3 4 5 6 7 8 9 / Top 100 tabs
Categorías
Usuarios
usuario:
Darse de alta
password:
Artistas más visitados
Publicidad
TOP acordes y tablaturas de Pastilla


Recuerdos
de Pastilla
Puntúa este acorde/tab:      
(0.5/5)
Reportar este acorde/tab
  Añadir a tus favoritos
  Imprimir
Pastilla
Recuerdos


     -fig.1-
e|---------------------------------------------------x--|
b|---------------------------------------------------x--|
g|------2-------2-------2-------2-------2-------2----6--|
d|----2---2---2---2---2---2---2---2---2---2---2---2--7--|
a|--0-------0-------2-------2-------0-------0--------7--|
e|---------------------------------------------------5--|


     -fig.2-
e|-------------------------------|
b|-------------------------------|
g|---9---11---6—---9---14---13---|
d|---x---x----x----x---xx---xx---|
a|---7---9----4----7---12---11---|
e|-------------------------------|
   -se toca un poco rápido y con el ritmo debido-


     -fig.3-
     A     A/B                              A   A/B
e|--------------|                        |----------|
b|---2------2---|                        |----------|
g|---2------2---| o lo pueden hacer así  |--6----6--|
d|---2------0---| para que sea mas fácil |--7----7--|
a|---0------2---| hacer la fig.6         |--7----5--|
e|--------------|                        |--5----7--|
   -en el verso se cambia entre uno y otro de estos dos acordes-

     -fig.6-
     A        A/B
e|----------------------|
b|----------------------|
g|---6-xxxx----6-xxxx---|
d|---7-xxxx----7-xxxx---|
a|---7-xxxx----5-xxxx---|
e|---5-xxxx----7-xxxx---|
   -con las "x" quiero decir que hagan mutings sobre la misma nota-
   -y que los hagan muy rápido o sólo tapen todas las cuerdas y rasgueen-


     -fig.4-
     E             D
e|---x---x---x-----x---x---x----|
b|---9---9---9-----7---7---7----|
g|---9---9---9-----7---7---7----|
d|---9---9---9-----7---7---7----|
a|------------------------------|
e|------------------------------|

     E             G
e|---x---x---x-----xx-xx-xx-xx-xx---|
b|---9---9---9-----12-12-12-12-12---|
g|---9---9---9-----12-12-12-12-12---|
d|---9---9---9-----12-12-12-12-12---|
a|----------------------------------|
e|----------------------------------|



(fig.2y3)
resisti a tus desprecios pero hoy, no hubo intento
(fig.2y6)
resisti el sonido de tus gritos pero hoy, quede en silencio

(fig.4)

(fig.2y6)

(fig.2y3)
resisti a tus desprecios pero hoy, no hubo tiempo
(fig.2y6)
resisti a las ansias del encuentro pero hoy, quede en silencio

(fig.4)
en el camino de recuerdos
(fig.4)
clandestinos te recuerdo


intermedio:
e|--------------------------------------|
b|--------------------------------------|
g|--------------------------------------|
d|--7-7-7-7-9-7-9-7--9-9-9-9-11-9-11-9--|
a|--7-7-7------------9-9-9--------------|
e|--5-5-5------------7-7-7--------------|

e|----------------------------------------------|
b|----------------------------------------5-5---|
g|---7-7-7-14141414-13-11-----------6-6-6-6-6---|
d|---7-7-7-12121212-12-12----7-7-7--7-7-7-7-7---|
a|---5-5-5-------------------7-7-7--7-7-7-7-7---|
e|---------------------------5-5-5--5-5-5-5-5---|

e|--------------------------------------|
b|--------------------------------------|
g|--------------------------------------|
d|--7-7-7-7-9-7-9-7--9-9-9-9-11-9-11-9--|
a|--7-7-7------------9-9-9--------------|
e|--5-5-5------------7-7-7--------------|

e|------------------------------------|
b|------------------------------------|
g|---7-7-7-14141414-13-11--11-11/13---|
d|---7-7-7-12121212-12-12--12-12/14---|
a|---5-5-5-----------------12-12/14---|
e|-------------------------10-10/12---|


(fig.1)(después de esta fig.1 entra eric junto con el bajo)
       (que esta tocando A y B un par de veces)


(fig.4)
en el camino de recuerdos
(fig.4)
clandestinos te recuerdo


(fig.6)
hoy te recuerdo
(fig.6)
hoy te recuerdo

   -termina en A-
		   
AcordesyTabs.com © 2008 Acordes y Tablaturas para guitarra. Tabs and Chords for guitar. Aviso Legal - Contacto
El uso de este sitio está sujeto a la aceptación de los términos y condiciones (36 usuarios online)