tablaturas, partituras y acordes para guitarra
Busca por banda/artista:
 
y/o título de la canción:
A B C D E F G H I J K L M N O P Q R S T U V W X Y Z 0 1 2 3 4 5 6 7 8 9 / Top 100 tabs
Categorías
Usuarios
usuario:
Darse de alta
password:
Artistas más visitados
Publicidad
TOP acordes y tablaturas de Pastilla


Mortal
de Pastilla
Puntúa este acorde/tab:      
(0.4/5)
Reportar este acorde/tab
  Añadir a tus favoritos
  Imprimir
Mejor cancion del disco!!!!!!! 

Si la tocas en acustica se oye chingon!!


.-=INTRO=-.(clean)

E----------------------------------------------|
B----------------------------------------------| 
G-----------0--------------0---------------2---| 
D--------4-------------5---------------0-------| 
A----5---------5---7-----------7---2-----------|
E----------------------------------------------| 

Despues de tocar 4 veces se toca esto....

E----------------------------------------||----------|
B----------------------------------------||----------|
G----------0-------------0-----------2---||---7b9r7--| 
D-------4-----4-------4-----4-----0------||----------| 
A--5/7-----------5/7-----------2---------||----------|
E----------------------------------------||----------|


.-=VERSO=-.(clean)

Estuve soñando...
     
E----------------------------------------------|
B----------------------------------------------| 
G-----------0--------------0---------------2---| 
D--------4-------------5---------------0-------| 
A----5---------5---7-----------7---2-----------|
E----------------------------------------------| 


.-=PUENTE=-.(clean)

 A                   G
  y si yo pinto un universo inmenso
 A                G
  es porque lo lamento lento
 A                 G
  y si no quiero estar conmigo
 A               G
  es porque me detesto 

este riff va sobre la parte de arriba

D----5---4---2--0-- (varias veces)

el riff del intro se toca con las notas de acompañamiento

     D1            E1             B1
E----------------------------------------------|
B----------------------------------------------| 
G-----------0--------------0---------------2---| 
D--------4-------------5---------------0-------| 
A----5---------5---7-----------7---2-----------|
E----------------------------------------------| 

      E1                       B1
E----------------------------------------|
B----------------------------------------|
G----------0-------------0-----------2---|
D-------4-----4-------4-----4-----0------| 
A--5/7-----------5/7-----------2---------|
E----------------------------------------|


.-=CORO=-.(distorcion)

  D  Em  Bm
  
  la gente piensa que he cambiado
 
  y piensan que soy yo 

  pero no se han dado cuenta que son ellos 

  prestame una mano para apoyarme en ti 

  no es que este cansado estoy enfermo



A   x02220
G   320022 
D1  x5777x
E1  x799xx
B1  799xxx 
D   xx0232
Em  022000
Bm  224432
		   
AcordesyTabs.com © 2008 Acordes y Tablaturas para guitarra. Tabs and Chords for guitar. Aviso Legal - Contacto
El uso de este sitio está sujeto a la aceptación de los términos y condiciones (32 usuarios online)