tablaturas, partituras y acordes para guitarra
Busca por banda/artista:
 
y/o título de la canción:
A B C D E F G H I J K L M N O P Q R S T U V W X Y Z 0 1 2 3 4 5 6 7 8 9 / Top 100 tabs
Categorías
Usuarios
usuario:
Darse de alta
password:
Artistas más visitados
Publicidad
TOP acordes y tablaturas de Genesis


Estás en: Inicio > Letra G > Acordes y tablaturas de Genesis > Invisible Touch
Invisible Touch
de Genesis
Puntúa este acorde/tab:      
(0.5/5)
Reportar este acorde/tab
  Añadir a tus favoritos
  Imprimir

ARTIST: Genesis
TITLE: Invisible Touch
FROM ALBUM: Invisible Touch
TABBED BY: Martin Kelly

NOTES: This should be more or less right.


INTRO/CHORUSES 1,2 AND 3

E---6--6--6--5--3--1--1--1--3---6--6--6--5--3--1--1--1--3---6--6--6--5--3--1--1-
B-------------------------------------------------------------------------------
G-------------------------------------------------------------------------------
D-------------------------------------------------------------------------------
A-------------------------------------------------------------------------------
E-------------------------------------------------------------------------------


E--6--6--6--5--3--1--1--1--3----------------------------------------------------
B-------------------------------------------------------------------------------
G-------------------------------------------------------------------------------
D-------------------------------------------------------------------------------
A-------------------------------------------------------------------------------
E-------------------------------------------------------------------------------

VERSE

E---------------------------------------5--5--3--5------------------------------
B-------------------------------------------------------------------------------
G---7--7---5--5---10--10---10-10---------------7--7---5--5---10--10--12--12--12-
D-------------------------------------------------------------------------------
A-------------------------------------------------------------------------------
E-------------------------------------------------------------------------------


E-----------------------------5--5--3--5---------------------5--5--3--5--1--1---
B-------------------------------------------------------------------------------
G--12----10--10---10-10---------------10--10---10-10----------------------------
D-------------------------------------------------------------------------------
A-------------------------------------------------------------------------------
E-------------------------------------------------------------------------------

The solo has no guitar, but I hold my hand lightly over the strings and just str

CHORUS 2 [Repeat this to fade.]

E--8--8--8--7--5--3--3--3--5---8--8--8--7--5--3--3--3--5---8--8--8--7--5--3--3--
B-------------------------------------------------------------------------------
G-------------------------------------------------------------------------------
D-------------------------------------------------------------------------------
A-------------------------------------------------------------------------------
E-------------------------------------------------------------------------------

E--8--8--8--7--5--3--3--3--5----------------------------------------------------
B-------------------------------------------------------------------------------
G-------------------------------------------------------------------------------
D-------------------------------------------------------------------------------
A-------------------------------------------------------------------------------
E-------------------------------------------------------------------------------


For a list of Easy Guitar Tabs, contact electricgod8512@aol.com



		   
AcordesyTabs.com © 2008 Acordes y Tablaturas para guitarra. Tabs and Chords for guitar. Aviso Legal - Contacto
El uso de este sitio está sujeto a la aceptación de los términos y condiciones (34 usuarios online)