tablaturas, partituras y acordes para guitarra
Busca por banda/artista:
 
y/o título de la canción:
A B C D E F G H I J K L M N O P Q R S T U V W X Y Z 0 1 2 3 4 5 6 7 8 9 / Top 100 tabs
Categorías
Usuarios
usuario:
Darse de alta
password:
Artistas más visitados
Publicidad
TOP acordes y tablaturas de los Panchos


Reloj
de los Panchos
Puntúa este acorde/tab:      
(0.8/5)
Reportar este acorde/tab
  Añadir a tus favoritos
  Imprimir
Este es el intro de esta bonita cancion
Espero que la disfruten !

E||------3--3--------------------5--5--3--3--X--X-X---8----8--7--7--5--5--5----10--10---8---8--7--7--5/7-
B||------5--5--6--6--5--5--5--6--6--5--5--6--6--6--10--10--8--8--6--6--6----12--12--10--10--8--8--6/8----
G||--5--X--X--7--7--5--5--5--X--X-X--X--7--7--7----------------------------------------------------------
D||------------------------------------------------------------------------------------------------------
A||------------------------------------------------------------------------------------------------------
E||------------------------------------------------------------------------------------------------------


E||--10-----8------10-------------10----8------10--------------------------------------------------------
B||------10------------10--8---------10-------------10--8------------------------------------------------
G||------------------------------------------------------------------------------------------------------
D||------------------------------------------------------------------------------------------------------
A||------------------------------------------------------------------------------------------------------
E||------------------------------------------------------------------------------------------------------
		   
AcordesyTabs.com © 2008 Acordes y Tablaturas para guitarra. Tabs and Chords for guitar. Aviso Legal - Contacto
El uso de este sitio está sujeto a la aceptación de los términos y condiciones (24 usuarios online)