tablaturas, partituras y acordes para guitarra
Busca por banda/artista:
 
y/o título de la canción:
A B C D E F G H I J K L M N O P Q R S T U V W X Y Z 0 1 2 3 4 5 6 7 8 9 / Top 100 tabs
Categorías
Usuarios
usuario:
Darse de alta
password:
Artistas más visitados
Publicidad
TOP acordes y tablaturas de los Panchos


Reloj
de los Panchos
Puntúa este acorde/tab:      
(0.3/5)
Reportar este acorde/tab
  Añadir a tus favoritos
  Imprimir
tic tac tic tac reloj con "LOS PANCHOS"
(pocos saben que ellos tambien la tocaron).
mando tambien el requinto con los CABALLEROS
que es completamente diferente.  

TIC TAC TIC TAC ......
__      
               ACORDE         ,                            
   1|---5----------8--10-8-7-----------------
 ) 2|-------5------8---------10--10-9-10-----
   3|-----5--------9-------------------------
   4|---------5----7-------------------------
 ) 5|----------------------------------------
   6|----------------------------------------
__/


__      
                         ,                
   1|--7-8-10--12-10-8----------------8-10-
 ) 2|------------------12----12-11-12------
   3|---------------------------------------
   4|---------------------------------------
 ) 5|---------------------------------------
   6|---------------------------------------
__/


__      
            ,            ,                
   1|--12-12--13-12-10---------------10-12---
 ) 2|------------------13---13-12-13---------
   3|----------------------------------------
   4|----------------------------------------
 ) 5|----------------------------------------
   6|----------------------------------------
__/

_      
            ,                            
   1|--13-13---12-10-------------------------
 ) 2|----------------13-12-10----------------
   3|-------------------------12-12-12---------
   4|----------------------------------------
 ) 5|----------------------------------------
   6|----------------------------------------
__/


mandenme un mail para platicar algo sobre musica 
de trio o si son de reynosa como yo pues pa'
ponernos de acuerdo soy segunda voz y no canto 
mal las rancheras pero que tal los boleros 
ok? buenop aqui les escribo mi mail 
Gerardo Lee Calera Reynosa tamps. 
( re5to@Latinmail.com)
		   
AcordesyTabs.com © 2008 Acordes y Tablaturas para guitarra. Tabs and Chords for guitar. Aviso Legal - Contacto
El uso de este sitio está sujeto a la aceptación de los términos y condiciones (28 usuarios online)