tablaturas, partituras y acordes para guitarra
Busca por banda/artista:
 
y/o título de la canción:
A B C D E F G H I J K L M N O P Q R S T U V W X Y Z 0 1 2 3 4 5 6 7 8 9 / Top 100 tabs
Categorías
Usuarios
usuario:
Darse de alta
password:
Artistas más visitados
Publicidad
TOP acordes y tablaturas de Genesis


Estás en: Inicio > Letra G > Acordes y tablaturas de Genesis > Throwing It All Away
Throwing It All Away
de Genesis
Puntúa este acorde/tab:      
(0.4/5)
Reportar este acorde/tab
  Añadir a tus favoritos
  Imprimir

ARTIST: Genesis
TITLE: Throwing It All Away
ALBUM: Invisible Touch
TABBED BY: Martin Kelly

Tune your guitar to the notes on the tab and have fun!



Eb------------------------------------------------------------------------------
Bb------------------------------------------------------------------------------
Gb--12-12-12-11-7-9--7-9--12-12-12-11-7-9--7-9--12-12-12-11-7-9--7-9-12-12-12-11
Db------------------------------------------------------------------------------
Ab------------------------------------------------------------------------------
Eb------------------------------------------------------------------------------

Eb------------------------------------------------------------------------------
Bb------------------------------------------------------------------------------
Gb--11-9------------------------------------------------------------------------
Db------------------------------------------------------------------------------
Ab------------------------------------------------------------------------------
Eb------------------------------------------------------------------------------

VERSE

Play the intro, and add this to it. Play the whole thing twice.

Eb------------------------------------------------------------------------------
Bb------------------------------------------------------------------------------
Gb--9----11----12-12-12-11-7-9---12-12-12-11-7-9--7-9--12-12-12-11-9-7--9-7-----
Db------------------------------------------------------------------------------
Ab------------------------------------------------------------------------------
Eb------------------------------------------------------------------------------

CHORUS

Eb------------------------------------------------------------------------------
Bb------------------------------------------------------------------------------
Gb--6---2---7-------4---2-----6---2---7-------4---2----9-----7----9-------------
Db--------------5-------------------------5-------------------------------------
Ab------------------------------------------------------------------------------
Eb------------------------------------------------------------------------------

INTERLUDE

play this twice

Eb------------------------------------------------------------------------------
Bb------------------------------------------------------------------------------
Gb--14-14-12-11-9-7---14-14-14-12-11-9-7---14-14-14-12-11-9-7---12-11-9-11-12---
Db------------------------------------------------------------------------------
Ab------------------------------------------------------------------------------
Eb------------------------------------------------------------------------------

ENDING

Repeat to fade

Eb------------------------------------------------------------------------------
Bb------------------------------------------------------------------------------
Gb--12-12-12-11-7-9--7-9--12-12-12-11-7-9--7-9--14-14-14-12-11-9--12-11-9-11-12-
Db------------------------------------------------------------------------------
Ab------------------------------------------------------------------------------
Eb------------------------------------------------------------------------------

SONG GOES LIKE THIS

Intro, Verse, Chorus, Interlude, Verse, Chorus*, Ending.

* Leave out the last three notes. If you don't cathc my drift, listen to the son


For a list of Guitar Tabs, contact electricgod8512@aol.com



		   
AcordesyTabs.com © 2008 Acordes y Tablaturas para guitarra. Tabs and Chords for guitar. Aviso Legal - Contacto
El uso de este sitio está sujeto a la aceptación de los términos y condiciones (41 usuarios online)