tablaturas, partituras y acordes para guitarra
Busca por banda/artista:
 
y/o título de la canción:
A B C D E F G H I J K L M N O P Q R S T U V W X Y Z 0 1 2 3 4 5 6 7 8 9 / Top 100 tabs
Categorías
Usuarios
usuario:
Darse de alta
password:
Artistas más visitados
Publicidad
TOP acordes y tablaturas de Genesis


Estás en: Inicio > Letra G > Acordes y tablaturas de Genesis > Tonight Tonight Tonight
Tonight Tonight Tonight
de Genesis
Puntúa este acorde/tab:      
(0.4/5)
Reportar este acorde/tab
  Añadir a tus favoritos
  Imprimir

ARTIST: Genesis
TITLE: Tonight Tonight Tonight
ALBUM: Invisible Touch
TABBED BY: Martin Kelly

INTRO

E-----------------------1/13-10----------------1/13-10--------------------------
B-------------------------------------------------------------------------------
G-------------------------------------------------------------------------------
D-------------------------------------------------------------------------------
A-------------------------------------------------------------------------------
E-------------------------------------------------------------------------------

VERSE

E-----------------------1/13-10------------------1/13-10----------12-10-12------
B-------------------------------------------------------------------------------
G-------------------------------------------------------------------------------
D-------------------------------------------------------------------------------
A-------------------------------------------------------------------------------
E-------------------------------------------------------------------------------

E-------------------------------------------------------------------------------
B-------------------------------------------------------------------------------
G--7----7-7---------------------------------------------------------------------
D--0----0-0---------------------------------------------------------------------
A--5----5-5---------------------------------------------------------------------
E-------------------------------------------------------------------------------

CHORUS

Repeat once

E-------------------------------------------------------------------------------
B-------------------------------------------------------------------------------
G--7-7--7-7-5-5--5-5-4-4----4-4--4----------------------------------------------
D-------------------------------------------------------------------------------
A-------------------------------------------------------------------------------
E-------------------------------------------------------------------------------

BRIDGE 1 [I got some money in my pocket...]

E-------------------------------------------------------------------------------
B-------------------------------------------------------------------------------
G--7-7-7-9-10-9-7-5--5-7-9-10-9-7-7-7-9-10-9-7-5--5-7-9-10-9-7-7-7-9-7-5-7-7--7-
D-------------------------------------------------------------------------------
A-------------------------------------------------------------------------------
E-------------------------------------------------------------------------------

E-------------------------------------------------------------------------------
B-------------------------------------------------------------------------------
G--7-9-10-9-7-5--5-7-9-10-9-7-7-7-9-10-9-7-5--5-7-9-10-9-7----------------------
D--------------------------------------------------------0----------------------
A-------------------------------------------------------------------------------
E-------------------------------------------------------------------------------

BRIDGE 2 [The long solo with funny noises]

Repeat this for 1:50 [3:16-5:06]

This is what I do

E-------------------------------------------------------------------------------
B-------------------------------------------------------------------------------
G--5-7-9-10--5-7-9--------------------------------------------------------------
D-------------------------------------------------------------------------------
A-------------------------------------------------------------------------------
E-------------------------------------------------------------------------------

Alternatively, you can do this

E-------------------------------------------------------------------------------
B------5-6------5---------------------------------------------------------------
G--5-7------5-7-----------------------------------------------------------------
D-------------------------------------------------------------------------------
A-------------------------------------------------------------------------------
E-------------------------------------------------------------------------------

BRIDGE 3 [Well you keep telling me...]

These first chords are repeated once, followed by these chords [repeated] and th

E--1----0----1----1----1------3--------------------1-0-1-1-3-------1-------0----
B--3----1----1----3----1------0--------------------3-1-1-3-0-------1-------1----
G--3----2----2----2-----------0--------------------3-2-2-2-0-------0-------2----
D--3----3----3----------------0--------------------3-3-3---0-------0-------2----
A-----------------------------2----------------------------2---------------0----
E-----------------------------3----------------------------3--------------------

E--0------1-------0-----1----3------------2-------------------------------------
B--1------3-------1-----3----1------------3-------------------------------------
G--2------3-------2-----3----2------------2-------------------------------------
D--2------3-------2-----3----------0------0-------------------------------------
A--0--------------0-------------------------------------------------------------
E-------------------------------------------------------------------------------

BRIDGE 4 [Please get me out of here...]

E--1----0-----1-----0-----1-----0-----1-----1-----------------------------------
B--3----1-----3-----1-----3-----1-----3-----1-----------------------------------
G--3----2-----3-----2-----3-----2-----3-----------------------------------------
D--3----2-----3-----2-----3-----2-----3-----------------------------------------
A-------0-----------0-----------0-----------------------------------------------
E-------------------------------------------------------------------------------

ENDING

As the original CHORUS is played, this is played on top starting after Phil sing

E-------------------------------------------------------------------------------
B--12---13--15--13-15-----------------------------------------------------------
G--------------------------4-4--2-2--4-4--5-4-2-4-5-7----------------------7-9-1
D-------------------------------------------------------------------------------
A-------------------------------------------------------------------------------
E-------------------------------------------------------------------------------

E-------------------------------------------------------------------------------
B-----------------------------------------------------------------------15-15-13
G--17-19------17-16--17-16-14-12-14-16---17-17-17-17-16-14-16---16-14-----------
D-------------------------------------------------------------------------------
A-------------------------------------------------------------------------------
E-------------------------------------------------------------------------------

E--------------15/20----20-20-19-17---17-19-20--20-19--17-15--------------------
B--17-17-15-15------------------------------------------------------------------
G-----------------------------------------------------------------------7-7-7-7-
D-------------------------------------------------------------------------------
A-------------------------------------------------------------------------------
E-------------------------------------------------------------------------------
Fades out
E-------------------------------------------------------------------------------
B--4/15-15--13-15---------------------------------------------------------------
G--4----------------------------------------------------------------------------
D-------------------------------------------------------------------------------
A-------------------------------------------------------------------------------
E-------------------------------------------------------------------------------


For a list of Guitar Tabs, contact electricgod8512@aol.com
		   
AcordesyTabs.com © 2008 Acordes y Tablaturas para guitarra. Tabs and Chords for guitar. Aviso Legal - Contacto
El uso de este sitio está sujeto a la aceptación de los términos y condiciones (54 usuarios online)