tablaturas, partituras y acordes para guitarra
Busca por banda/artista:
 
y/o título de la canción:
A B C D E F G H I J K L M N O P Q R S T U V W X Y Z 0 1 2 3 4 5 6 7 8 9 / Top 100 tabs
Categorías
Usuarios
usuario:
Darse de alta
password:
Artistas más visitados
Publicidad
TOP acordes y tablaturas de Green day


Estás en: Inicio > Letra G > Acordes y tablaturas de Green day > Sassafras roots
Sassafras roots
de Green day
Puntúa este acorde/tab:      
(0.2/5)
Reportar este acorde/tab
  Añadir a tus favoritos
  Imprimir
INTRODUÇÃO: D' A' Em | Riff #1

1º VERSO:

    A                   A9  A   A9  A       D         Em    E
e|--0---0---0---0---0---0---0---0---0---0-------------------0-0--|
B|--2---2---2---2---2---0---2---0---2---2---3-3-3-3-3-------0-0--|
G|--2---2---2---2---2---2---2---2---2---2---2-2-2-2-2-------1-1--|
D|--2---2---2---2---2---2---2---2---2---2---0-0-0-0-0-2-2-2-2-2--|
A|--0---0---0---0---0---0---0---0---0---0-------------2-2-2-2-2--|
E|----------------------------------------------------0-0-0-0-0--|
   Roaming round your house,  wasting your time


    A                   A9  A   A9  A       D         Em    E
e|--0---0---0---0---0---0---0---0---0---0-------------------0-0--|
B|--2---2---2---2---2---0---2---0---2---2---3-3-3-3-3-------0-0--|
G|--2---2---2---2---2---2---2---2---2---2---2-2-2-2-2-------1-1--|
D|--2---2---2---2---2---2---2---2---2---2---0-0-0-0-0-2-2-2-2-2--|
A|--0---0---0---0---0---0---0---0---0---0-------------2-2-2-2-2--|
E|----------------------------------------------------0-0-0-0-0--|   
  No 	obligation,   wasting     your     time

    A                   A9  A   A9  A       D         Em    E
e|--0---0---0---0---0---0---0---0---0---0-------------------0-0--|
B|--2---2---2---2---2---0---2---0---2---2---3-3-3-3-3-------0-0--|
G|--2---2---2---2---2---2---2---2---2---2---2-2-2-2-2-------1-1--|
D|--2---2---2---2---2---2---2---2---2---2---0-0-0-0-0-2-2-2-2-2--|
A|--0---0---0---0---0---0---0---0---0---0-------------2-2-2-2-2--|
E|----------------------------------------------------0-0-0-0-0--|
   So  why  are  you  alone,  wasting your time

    A                   A9  A   A9  A       D         Em    E
e|--0---0---0---0---0---0---0---0---0---0-------------------0-0--|
B|--2---2---2---2---2---0---2---0---2---2---3-3-3-3-3-------0-0--|
G|--2---2---2---2---2---2---2---2---2---2---2-2-2-2-2-------1-1--|
D|--2---2---2---2---2---2---2---2---2---2---0-0-0-0-0-2-2-2-2-2--|
A|--0---0---0---0---0---0---0---0---0---0-------------2-2-2-2-2--|
E|----------------------------------------------------0-0-0-0-0--|
  When you could be with me,  wasting your time

REFRÃO 1:

D                 Em E
I'm a waste like you
      D              Em E
With nothing else to do
    D'       A'        Em(PM)  E'
May I waste your time too

SOLO 1: Riff #1

3º VERSO:

    A                   A9  A   A9  A       D         Em    E
e|--0---0---0---0---0---0---0---0---0---0-------------------0-0--|
B|--2---2---2---2---2---0---2---0---2---2---3-3-3-3-3-------0-0--|
G|--2---2---2---2---2---2---2---2---2---2---2-2-2-2-2-------1-1--|
D|--2---2---2---2---2---2---2---2---2---2---0-0-0-0-0-2-2-2-2-2--|
A|--0---0---0---0---0---0---0---0---0---0-------------2-2-2-2-2--|
E|----------------------------------------------------0-0-0-0-0--|
   Warding  off  regrets,   wasting  your  time

    A                   A9  A   A9  A       D         Em    E
e|--0---0---0---0---0---0---0---0---0---0-------------------0-0--|
B|--2---2---2---2---2---0---2---0---2---2---3-3-3-3-3-------0-0--|
G|--2---2---2---2---2---2---2---2---2---2---2-2-2-2-2-------1-1--|
D|--2---2---2---2---2---2---2---2---2---2---0-0-0-0-0-2-2-2-2-2--|
A|--0---0---0---0---0---0---0---0---0---0-------------2-2-2-2-2--|
E|----------------------------------------------------0-0-0-0-0--|  
  Smoking   cigarettes,   wasting   your   time

    A                   A9  A   A9  A       D         Em    E
e|--0---0---0---0---0---0---0---0---0---0-------------------0-0--|
B|--2---2---2---2---2---0---2---0---2---2---3-3-3-3-3-------0-0--|
G|--2---2---2---2---2---2---2---2---2---2---2-2-2-2-2-------1-1--|
D|--2---2---2---2---2---2---2---2---2---2---0-0-0-0-0-2-2-2-2-2--|
A|--0---0---0---0---0---0---0---0---0---0-------------2-2-2-2-2--|
E|----------------------------------------------------0-0-0-0-0--|     
  I'm  just  a  parasite,  wasting   your  time

    A                   A9  A   A9  A       D         Em    E
e|--0---0---0---0---0---0---0---0---0---0-------------------0-0--|
B|--2---2---2---2---2---0---2---0---2---2---3-3-3-3-3-------0-0--|
G|--2---2---2---2---2---2---2---2---2---2---2-2-2-2-2-------1-1--|
D|--2---2---2---2---2---2---2---2---2---2---0-0-0-0-0-2-2-2-2-2--|
A|--0---0---0---0---0---0---0---0---0---0-------------2-2-2-2-2--|
E|----------------------------------------------------0-0-0-0-0--|    
   Applying   myself   to   wasting  your  time

(REFRÃO)

(SOLO 1)

PONTE: F# D - 2x | F# D' E' 

(2° VERSO)

2º REFRÃO:

D                 Em E
I'm a waste like you
      D               Em E
With nothing else to do
    D'       A'        Em(PM)  E'
May I waste your time too 
    D'       A'        E'
May I waste your time too
    D'       A'        E'
May I waste your time too  
    D'       A'        Em
May I waste your time too

(TERMINE COM Em)
____________________________________________________________________________

Riff #1

    A                   A9  A   A9  A       D         Em    E
e|--0---0---0---0---0---0---0---0---0---0-------------------0-0--|
B|--2---2---2---2---2---0---2---0---2---2---3-3-3-3-3-------0-0--|
G|--2---2---2---2---2---2---2---2---2---2---2-2-2-2-2-------1-1--|
D|--2---2---2---2---2---2---2---2---2---2---0-0-0-0-0-2-2-2-2-2--|
A|--0---0---0---0---0---0---0---0---0---0-------------2-2-2-2-2--|
E|----------------------------------------------------0-0-0-0-0--| (2x)
____________________________________________________________________________

AFINE SUA GUITARRA PARA Eb (1/2 TOM ABAIXO)

Acordes Usados:

A  : X 0 2 2 2 0 
A9 : X 0 2 2 0 0
A' : 5 7 7
D  : X X 0 2 3
D' : X 5 7 7
E  : 0 2 2 1 0 0
Em : 0 2 2
E' : X 7 9 9
F# : 2 4 4		   
AcordesyTabs.com © 2008 Acordes y Tablaturas para guitarra. Tabs and Chords for guitar. Aviso Legal - Contacto
El uso de este sitio está sujeto a la aceptación de los términos y condiciones (34 usuarios online)