tablaturas, partituras y acordes para guitarra
Busca por banda/artista:
 
y/o título de la canción:
A B C D E F G H I J K L M N O P Q R S T U V W X Y Z 0 1 2 3 4 5 6 7 8 9 / Top 100 tabs
Categorías
Usuarios
usuario:
Darse de alta
password:
Artistas más visitados
Publicidad
TOP acordes y tablaturas de Vicente Fernandez


Mujeres Divinas
de Vicente Fernandez
Puntúa este acorde/tab:      
(0.7/5)
Reportar este acorde/tab
  Añadir a tus favoritos
  Imprimir
este es el intro y mas de la cancion ''Mujeres Divinas''
que interpreto Charmin Correa con la voz de su guitarra
Esta cancion q toca Charmin Correa solo se escucha la guitarra
solo saque todo el inicio y mas de esta cancion q se escucha muy chida
y ojala q ustedes opinen lo mismo:

  0:00                                             0:06
E---------------------------------------------------------------------
A---------------------------------------------------------------------
D---------------------------------------------------------------------
G---------------------------------------------------------------------
B-8---6---4----6--6--10--10--6--6--4--4--3----3---5---6---------------
e---6---5---3--5--5--8---8---5--5--3--3----1----1---3---5-------------

  0:07                                               0:11
E---------------------------------------------------------------------
A---------------------------------------------------------------------
D---------------------------------------------------------------------
G---------------------------------------------------------------------
B-8---6---4----6--6--10--10--6--6--4--4--3----8---10---11-------------
e---6---5---3--5--5--8---8---5--5--3--3----1----6----8----10----------

  0:12                                                          0:16
E---------------------------------------------------------------------
A---------------------------------------------------------------------
D---------------------------------------------------------------------
G---------------------------------------------------------------------
B-11--11--11--11--11--11--11--11--11--11--11--11--11--11--10--11--8---
e-10--10--10--10--11--10--10--10--10--11--10--10--10--10--08--10----6-

  0:17                                                               0:22
E------------------------------------------------------------------------
A------------------------------------------------------------------------
D------------------------------------------------------------------------
G------------------7----7--8----8--9----9--11----11--12------------------
B-11--10--8--6--4-----------------------------------------------15-13-11-
e-10--08--6--5--3----10------11------12-------14--------15-14-15---------

  0:23                                                      0:33
E---------------------------------------------------------------------
A---------------------------------------------------------------------
D---------------------------------------------------------------------
G---------------------------------------------------------------------
B-8---------------------------------------------3---------------------
e--10-10-10-8-6-6-6-11-10-10/11-11--8-8-8-8-6-5---10-8-8/10-10-8-6----

  0:34                          0:38
E---------------------------------------------------------------------
A---------------------------------------------------------------------
D---------------------------------------------------------------------
G---------------------------------------------------------------------
B-3--8--7--8--7--8--7--8--9--10--10--3--7--5--7--5--3-----------------
e----6--5--6--5--6--5--6--7--08--08-----5--3--5--3--2-----------------

tambien quiero dedicar este trabajo a todos los q me rodean y los q apoyan a la musica
en español y a la trova, bye
		   
AcordesyTabs.com © 2008 Acordes y Tablaturas para guitarra. Tabs and Chords for guitar. Aviso Legal - Contacto
El uso de este sitio está sujeto a la aceptación de los términos y condiciones (18 usuarios online)