tablaturas, partituras y acordes para guitarra
Busca por banda/artista:
 
y/o título de la canción:
A B C D E F G H I J K L M N O P Q R S T U V W X Y Z 0 1 2 3 4 5 6 7 8 9 / Top 100 tabs
Categorías
Usuarios
usuario:
Darse de alta
password:
Artistas más visitados
Publicidad
TOP acordes y tablaturas de Fiskales Ad Hok


Resistiré
de Fiskales Ad Hok
Puntúa este acorde/tab:      
(1.1/5)
Reportar este acorde/tab
  Añadir a tus favoritos
  Imprimir
AKA LES VA EL COVER KE LE HIZO FISKALES A LOS MUERTOS DE CRISTO
PARTE CON UN FA5 Y SE DEJA SONANDO
VERSO:
1------------------------------------------
2------------------------------------------
3------------------------------------------
4---333333338888888555555101010101010-1099-
5---333333338888888555555101010101010-1099-
6---1111111166666663333338-8-8-8-8-8--8-77-

1-----------------------------------------
2-----------------------------------------
3------------------------------1010998877-
4---3333333388888881010101010101010998877-
5---3333333388888881010101010108-8-776655-
6---1111111166666668-8-8-8-8-8------------

CORO:
1----------------------------------------------------
2----------------------------------------------------
3---1010668------------------55555-----555555--------
4---1010668-------------6666655555333335555553333333-
5---8-8-446se deja sonar6666633333333333333333333333-
6-----------------------44444-----11111------1111111-

1-------------------------------------------0-------
2-------------------------------------------0-------
3---1010101010666668888------5555-----555555055555--
4---1010101010666668888666666555533333555555055555--
5---8-8-8-8-8-444446666666666333333333333333033333--
6----------------------44444-----11111------0-------

PUNTEO 1:
1---------------------------------------------
2---------------------------------------------
3---5-565656563-353535355-565656563-35353535--
4---------------------------------------------
5---------------------------------------------
6---------------------------------------------

VERSO
CORO

PUNTEO 2:
1------------------------------------------------
2---------------------------------------------5--
3---5-565656563-353535355-565656563-3--653---55--
4-----------------------------------------65353--
5--------------------------------------------3---
6------------------------------------------------

ESO ES TODO ES SUPER FÁCIL PERO ES RÁPIDA. DISFRUTENLA
DUDAS Y COMENTARIOS,  ESCRIBAN A
pxr_kristian_ta@hotmail.com
CHAO
		   
AcordesyTabs.com © 2008 Acordes y Tablaturas para guitarra. Tabs and Chords for guitar. Aviso Legal - Contacto
El uso de este sitio está sujeto a la aceptación de los términos y condiciones (27 usuarios online)