tablaturas, partituras y acordes para guitarra
Busca por banda/artista:
 
y/o título de la canción:
A B C D E F G H I J K L M N O P Q R S T U V W X Y Z 0 1 2 3 4 5 6 7 8 9 / Top 100 tabs
Categorías
Usuarios
usuario:
Darse de alta
password:
Artistas más visitados
Publicidad
TOP acordes y tablaturas de Fiskales Ad Hok


Resistiré
de Fiskales Ad Hok
Puntúa este acorde/tab:      
(0.7/5)
Reportar este acorde/tab
  Añadir a tus favoritos
  Imprimir
 
  INTRO :    * = se deja sonando
G------
D------
A------
E--1*--

  VERSO :
G-------------------------------------------------
D-------------------------------------------------
A-------------------------------------------------
E--11111111-6666666-333333-888888--8-77-----------

G-------------------------------------------------
D-------------------------------------------------
A---------------------------------8-8-77-66-55----
E--11111111-6666666-888888------------------------

  CORO :  * = se de ja sonando
G------------------------------------------------
D------------------------------------------------
A--8*-4*-6*--------33333------33333--------------
E--------------44444------11111------1111111-----

G-----------------------------------------------------------
D-----------------------------------------------------------
A--88888-44444-66666-------33333------33333-----------------
E-------------------------44444------11111------1111111-----

  PUNTEO A :    * = se deja sonando
G--5*-3*-5*-3*----------------
D-----------------------------
A-----------------------------
E-----------------------------

  VERSO :
G-------------------------------------------------
D-------------------------------------------------
A-------------------------------------------------
E--11111111-6666666-333333-888888--8-77-----------

G-------------------------------------------------
D-------------------------------------------------
A---------------------------------8-8-77-66-55----
E--11111111-6666666-888888------------------------

  CORO :  * = se deja sonando
G------------------------------------------------
D------------------------------------------------
A--8*-4*-6*--------33333------33333--------------
E--------------44444------11111------1111111-----

G-----------------------------------------------------------
D-----------------------------------------------------------
A--88888-44444-66666-------33333------33333-----------------
E-------------------------44444------11111------1111111-----

  PUNTEO B :    * = se deja sonando
G--5*-3*-5*-3*---------
D----------------------
A-------------------3--
E------------------3---

esa es toda la cancion ,ojala que algun trancriptor de 
bateria mande la de esta cancion para que este completa
dudas o consultas olo que sea a mi correo electonico 
CHAO
		   
AcordesyTabs.com © 2008 Acordes y Tablaturas para guitarra. Tabs and Chords for guitar. Aviso Legal - Contacto
El uso de este sitio está sujeto a la aceptación de los términos y condiciones (24 usuarios online)