tablaturas, partituras y acordes para guitarra
Busca por banda/artista:
 
y/o título de la canción:
A B C D E F G H I J K L M N O P Q R S T U V W X Y Z 0 1 2 3 4 5 6 7 8 9 / Top 100 tabs
Categorías
Usuarios
usuario:
Darse de alta
password:
Artistas más visitados
Publicidad
TOP acordes y tablaturas de Silvio Rodriguez


Estás en: Inicio > Letra S > Acordes y tablaturas de Silvio Rodriguez > Resumen de Noticias
Resumen de Noticias
de Silvio Rodriguez
Puntúa este acorde/tab:      
(0.3/5)
Reportar este acorde/tab
  Añadir a tus favoritos
  Imprimir
INTRO  (RIFF 1)


   C        G        Am       Em       F             Em
E-----------------------------------0--1-----1h3p1p0-0-----0---
B--1---1----0-----0--1-----1--0----------1-------------0-------
G----0---0----0--------2--------0----------2-------------0-----
D---------------0--------2--------2----------------------------
A--3-----------------0-----------------------------------------
E-----------3-----------------0--------1-------------0---------

   Dm       C
E---------------------------------------------------------------
B--3-----3--1---0---0-------------------------------------------
G----2--------0---2---------------------------------------------
D--3---3--------------------------------------------------------

A-----------3---------------------------------------------------
E---------------------------------------------------------------

RIFF 2

   C        G        Am       Em       F             Em
E------0-----------------0----------0--1-----1h3p1p0-0-----0----
B--1-----1--0-----0--1-----1--0----------1-------------0--------
G----0--------0--------2--------0----------2-------------0------
D---------------0-----------------2-----------------------------
A--3-----------------0------------------------------------------
E-----------3-----------------0--------1-------------0----------

   Dm       C
E---------------------------------------------------------------
B--3-----3--1---0---0-------------------------------------------
G----2--------0---2---------------------------------------------
D--3---3--------------------------------------------------------
A-----------3---------------------------------------------------
E---------------------------------------------------------------



     Se acompaña con RIFF 1

     C               G      Am          Em
     He estado al alcance de todos los bolsillos
     F                Em      F               C
     porque no cuesta nada mirarse para adentro.
     C               G      Am        Em
     He estado al alcance de todas la manos
     F                 Em         F           C
     que han querido tocar mi mano amigamente.


     Se  acompaña con RIFF 2

     C              G        Am                Em
     Pero, pobre de mi, no he estado con los presos
     F              Em         F    C
     de su propia cabeza acomodada,
     C                       G            Am       Em
     no he estado en los que ríen con solo media risa,
     F                 Em         F        C
     los delimitadores de las primaveras.


     RIFF 2


     Se acompaña con RIFF 1

     No he estado en los archivos ni en las papelerías
     y se me archiva en copias y no en originales.
     No he estado en los mercados grandes de la palabra,
     pero he dicho lo mío a tiempo y sonriente.
     No he estado enumerando las manchas en el sol
     pues sé que en una sola mancha cabe el mundo.
     He procurado ser un gran mortificado
     para, si mortifico, no vayan a acusarme.


     (Aqui se rasgan los acordes)

     D                A      Bm        F#m
     Aunque se dice que me sobran enemigos,
     G                 F#m          G              A(5) G  D
     todo el mundo me escucha bien quedo cuando canto.
     D                 A          Bm        F#m
     Yo he preferido hablar de cosas imposibles
     G             F#m       G            A(5) G D
     porque de lo posible se sabe demasiado
     D                A        Bm       F#m
     He preferido el polvo así, sencillamente,
     G                F#m      G         A(5) G  D
     pues la palabra amor aún me suena hueco.
     D                  A    Bm        F#m
     He preferido un golpe así, de vez en cuando,
     G                #m          G        A(5)   G  D
     porque la inmunidad me carcome los huesos                                                        .
     D        A             Bm       F#m
     Agradezco la participación de todos
     G               F#m     G       A(5)   G  D
     los que colaboraron en esta melodía.
     D             A              Bm    F#m
     Se debe subrayar la importante tarea
     G                F#m     G              A(5)   G  D
     de los perseguidores de cualquier nacimiento.
     D                   A          Bm        F#m
     Si alguien que me escucha se viera retratado,
     G             F#m       G      A(5)   G  D
     sépase que se hace con ese destino.
     D                  A        Bm        F#m
     Cualquier reclamación que sea sin membrete.
     G                F#m   G     A(5)   G  D
     Buenas noches, amigos y enemigos.

     D   A   Bm   F#m

     G   A(5)  G   F#m   A(5)  G  G  D  (uno por uno)


     A(5):  5
            5
            6
            7
            7
            5
		   
AcordesyTabs.com © 2008 Acordes y Tablaturas para guitarra. Tabs and Chords for guitar. Aviso Legal - Contacto
El uso de este sitio está sujeto a la aceptación de los términos y condiciones (50 usuarios online)