tablaturas, partituras y acordes para guitarra
Busca por banda/artista:
 
y/o título de la canción:
A B C D E F G H I J K L M N O P Q R S T U V W X Y Z 0 1 2 3 4 5 6 7 8 9 / Top 100 tabs
Categorías
Usuarios
usuario:
Darse de alta
password:
Artistas más visitados
Publicidad
TOP acordes y tablaturas de Canal Magdalena


Revolución
de Canal Magdalena
Puntúa este acorde/tab:      
(0.5/5)
Reportar este acorde/tab
  Añadir a tus favoritos
  Imprimir
intro
En tema comienza con una guitarra acustica que 
esta haciendo un Re,(potienedo el dedo meñique en la nota Fa#)

Aquí esta el punteo de guitarra distorcionada que sigue :
E|------------------------------------------------|
B|-15---------------------------------------------|
G|---------14-----------------14-14-h16-----------|
D|-----16----16-16-14-16---------------16---------|
A|------------------------------------------------|
E|------------------------------------------------|


Re
Es el nuevo sentido, que le damos al destino
Re
Despertamos renovados, el sol cabe en nuestras manos
Re
flores en el corazón, un trago de agua miel
Re
tiempo de recambios es hoy, colores que otros no ven

|Punteo de guitarra|:

Re
la sustancia de tu alma, me permite despegar
Re
nuestro secreto es el don, los colores que otros no ven

coro:
Re                 La             Sol  Solm      Re         
revolucion a comenzado, un sol distinto necesitamos
Re                    La              Sol Solm       Re
revolución sentirce amados, el sueño crece entre los dos,
entre los dos....

|Punteo de guitarra|

Re
Yo prefiero despertarme a ver el amanecer
Re
y ojala puedas venir yo te necesito aquí

Coro 2:
Re                 La            Sol Solm        Re                   
revolucion nada mi alma, sera cambiado vivire amando
Re                  La                Sol Solm          Re                 
revolucion sabras creerme, cuando me veas trayéndote el sol,
trayéndote el sol

Punteo de guitarra electrica con distorcion:
E|----------------------------------------------|
B|----------------------------------------------|
G|-----7-6---7-6-7s9---------------7-------7----|
D|--7------4---------------7-7-6-5----5-4-------|
A|----------------------------------------------|
E|----------------------------------------------|

Re                     La             Sol Solm       Re
revolución sentirte amando, el sueño crece entre los dos,
entre los dos....

|este es el punteo final de guitarra acustica|


E|--10-10-12----------------------------------|
B|---------------10-10-12---------------------|
G|----------------------------11-11-9-7-------|
D|--------------------------------------------|
A|--------------------------------------------|
E|--------------------------------------------|
		   
AcordesyTabs.com © 2008 Acordes y Tablaturas para guitarra. Tabs and Chords for guitar. Aviso Legal - Contacto
El uso de este sitio está sujeto a la aceptación de los términos y condiciones (25 usuarios online)