tablaturas, partituras y acordes para guitarra
Busca por banda/artista:
 
y/o título de la canción:
A B C D E F G H I J K L M N O P Q R S T U V W X Y Z 0 1 2 3 4 5 6 7 8 9 / Top 100 tabs
Categorías
Usuarios
usuario:
Darse de alta
password:
Artistas más visitados
Publicidad
TOP acordes y tablaturas de Fobia


Estás en: Inicio > Letra F > Acordes y tablaturas de Fobia > Revolución sin manos
Revolución sin manos
de Fobia
Puntúa este acorde/tab:      
(0.6/5)
Reportar este acorde/tab
  Añadir a tus favoritos
  Imprimir
E:x79977
A:577655
C#X46644
D:X57755

RIFF:

--------------------------------------------------------
-----------------10-----------------------10------------
------9----9---9------9----9------9-----9--------6------
-----9----9--7-------9----9------9----7----------7----7-
----7----7---0---0--7---OH7--0H7----0-----------7----7--
---0----0---------0---0-----------------------5-----5---


RIIF DURANTE EL VERSO 1

DESPUES DE TANTO CORRER...

ESTO DURANTE EL CAMBIO
------------
------------
---6--------
--6----7----
-4----7-----
-----5------


CORO
    E   A         D      A           E    A  
REVOLUCIÓN LO QUE HACE FALTA ES UNA REVOLUCIÓN 
D  A              C#   A  C# A
Y PROPONEMOS UNA REVOLUCIÓN SIN MANOS

INTERMEDIO

-------------------------------
------8-----------7H8----------
-----9--11--9--11--------------
----9--------------------------
---7---------------------------
-------------------------------
		   
AcordesyTabs.com © 2008 Acordes y Tablaturas para guitarra. Tabs and Chords for guitar. Aviso Legal - Contacto
El uso de este sitio está sujeto a la aceptación de los términos y condiciones (46 usuarios online)