tablaturas, partituras y acordes para guitarra
Busca por banda/artista:
 
y/o título de la canción:
A B C D E F G H I J K L M N O P Q R S T U V W X Y Z 0 1 2 3 4 5 6 7 8 9 / Top 100 tabs
Categorías
Usuarios
usuario:
Darse de alta
password:
Artistas más visitados
Publicidad
TOP acordes y tablaturas de Gob


Estás en: Inicio > Letra G > Acordes y tablaturas de Gob > I hear you calling
I hear you calling
de Gob
Puntúa este acorde/tab:      
(0.6/5)
Reportar este acorde/tab
  Añadir a tus favoritos
  Imprimir

Date: November 20, 2000
Author/Artist: Gob
Title: I hear you calling
Album: The World According to Gob
Transcribed by: Eric Bergevin
E-mail address: eric.bergevin@home.com


Hello!! This tab is for all you lazy people out there who waited for someone
like me to figure out the song and write it down for you. Don't worry, I was
one of them too at first! Anyways, here it is and I hope you like it.
---------------------------------------------------------------------------
Legend:

/ = slide up
h = hammer on
v = vibrato


Note: The timing for guitar 1 is probably not exact but I aligned it with
the notes of guitar 2.

Guitar 1
    B5           C#5 G#5          E5            G#5         E5          G#5
E --x-x-x-x-x-x-x-x/x--x--x-x-x-x-x-x-x-x-x-x-x-x-x-x-x-x-x-x-x-x-x-x-x-x-x-
B --x-x-x-x-x-x-x-x/x--x--x-x-x-x-x-x-x-x-x-x-x-x-x-x-x-x-x-x-x-x-x-x-x-x-x-
G --4-4-4-4-4-4-4-4/6--x--x-x-x-x-x-x-x-x-x-x-x-x-x-x-x-x-x-x-x-x-x-x-x-x-x-
D --4-4-4-4-4-4-4-4/6--6--6-6-6-6-x-x-x-x-x-x-x-6-6-6-6-6-6-x-x-x-x-x-x-6-6-
A --2-2-2-2-2-2-2-2/4--6--6-6-6-6-2-2-2-2-2-2-2-6-6-6-6-6-6-2-2-2-2-2-2-6-6-
E --x-x-x-x-x-x-x-x/x--4--4-4-4-4-0-0-0-0-0-0-0-4-4-4-4-4-4-0-0-0-0-0-0-4-4-

Guitar 2
E -------------------------------------------------------------------------
B -------------------------------------------------------------------------
G -------------------------------------------------------------------------
D ------------------6-------------------------------------------------------
A ----6-9-6-9--9-6-----9--6-6-6-4-2-2-2---2-2---2/6---4h6-4--2-2---2-2---2/6
E --------------------------------------4-----4------------------4-----4----


Guitar 1 (continuation)
          E5          F#5
E --x-x-x-x-x-x-x-x-x-x-x-x-x-x-x-x--|-
B --x-x-x-x-x-x-x-x-x-x-x-x-x-x-x-x--|-
G --x-x-x-x-x-x-x-x-x-x-x-x-x-x-x-x--|-
D --6-6-6-x-x-x-x-x-x-4-4-4-4-4-4-4--|-
A --6-6-6-2-2-2-2-2-2-4-4-4-4-4-4-4--|-
E --4-4-4-0-x-x-x-x-x-2-2-2-2-2-2-2--|-

Guitar 2 (continuation)
E -----------------------------------|-
B -----------------------------------|-
G -----------------------------------|-
D -----------------------------------|-
A --4h6-4--2-2---2-2---2/6--4--4--2--|-
E -------------4-----4---------------|-

(End of Intro)


(VERSE 1)

B5                        C#5    G#5        
  I've seen you now about the fourth time baby
             E5                           G#5    
  but you know that I've got nothing to say
            E5                      G#5
  It's so charming to look on your face
             E5                       F#5
  But your eyes inviting something I just can't do now
B5                            C#5  G#5
  I've been around about your hood I'm looking for you
  E5                             G#5
  Just to shine some light on my day
               E5                           G#5
  Feels like ages since I've been out your way
              E5                          F#5
  I've been caught up with a handful of new sensations



(CHORUS) play with palm mutes

  E5         F#5
  I hear you calling 
  C#5                         G#5
  calling for me out in the night
            E5          F#5
  but it's all bad
          C#5       G#5
  and I know that



(VERSE 2)

B5                        C#5    G#5        
  I've seen you now about the fifth time baby
             E5                          *G#5    
  but you know that I've got nothing to say
            E5                     *G#5
  It's so charming to look on your face
             E5                       F#5
  But your eyes inviting something I just can't do now
B5                            C#5  G#5
  I've been around about your hood I'm looking for you
  E5                            *G#5
  Just to shine some light on my day
               E5                          *G#5
  Feels like ages since I've been out your way
              E5                          F#5
  I've been caught up with a handful of new sensations


RIFF 1 (Guitar 2 plays this during Verse 2 wherever the (*) appears)

E -----------|-
B -----------|-
G -----------|-
D -----------|-
A -----------|-
E --4v-6v-4--|-


(CHORUS) play with palm mutes

  E5         F#5
  I hear you calling 
  C#5                         G#5
  calling for me out in the night
            E5          F#5
  but it's all bad
          C#5       E5  F#5
  and I know that


-After this play the Intro twice.

-Then the chorus twice, without any guitar on the first time.

-On the second time, the guitar comes in with palm mutes.

-The rest of the song is just the chorus repeated over
and over again(no palm mutes) until it fades.


---------------------------------------------------------------------------
Important: 
If this tab does not look aligned properly, do not blame me!
It's either the site you are viewing it on or whatever program
you are using to view my tab that is making it that way.
Thank you!
---------------------------------------------------------------------------

I would like to thank first of all Alistair Hill for getting me started
in this guitar business and also Noah Grossman, Kira Simper, Tia Simper
and Pat for making this tab possible. But most importantly, Gob.

Sorry, I always wanted to do that!

Any comments or suggestions e-mail me at eric.bergevin@home.com



		   
AcordesyTabs.com © 2008 Acordes y Tablaturas para guitarra. Tabs and Chords for guitar. Aviso Legal - Contacto
El uso de este sitio está sujeto a la aceptación de los términos y condiciones (16 usuarios online)