tablaturas, partituras y acordes para guitarra
Busca por banda/artista:
 
y/o título de la canción:
A B C D E F G H I J K L M N O P Q R S T U V W X Y Z 0 1 2 3 4 5 6 7 8 9 / Top 100 tabs
Categorías
Usuarios
usuario:
Darse de alta
password:
Artistas más visitados
Publicidad
TOP acordes y tablaturas de Duncan Dhu


Estás en: Inicio > Letra D > Acordes y tablaturas de Duncan Dhu > Río del Silencio
Río del Silencio
de Duncan Dhu
Puntúa este acorde/tab:      
(0.4/5)
Reportar este acorde/tab
  Añadir a tus favoritos
  Imprimir
NOTACION

x= nota/s de corte

------------------------------------------------------------
------------------------------------------------------------

FORMACION DE ACORDES

A        (x02220)
A/B      (x20220)
A/C#     (x40220)
A/D      (x00220)
B?       (x2x440)
Bsus4/Ab (0x4100)
Dsus2    (xx0230)
E        (022100)
E7       (020100)

------------------------------------------------------------
------------------------------------------------------------

AFINACION

Normal (standar)

------------------------------------------------------------
------------------------------------------------------------

N.d.A.: los acordes que indico arriba no son realmente los
acordes de la canción; son una referencia para posicionar
de una forma adecuada y comoda los dedos de la mano a la
hora de arpegiar; si quieres tocar esta canción rasgueando
las cuerdas de la guitarra y cantando a la vez utiliza los
acordes que aparecen en la segunda parte del tabulado

------------------------------------------------------------
------------------------------------------------------------


-----
INTRO
-----

A/D
-----------0---------------------0-----------
--0--2--------0--2------0--2--------0--2-----
--------2-----------2---------2-----------2--
---------------------------------------------
--0--------0------------0--------0-----------
---------------------------------------------


-------
VERSO 1
-------

A/D                                       xxx
-----------0---------------------0-------¡---
--0--2--------0--2------0--2--------0--2-¡---
--------2-----------2---------2----------¡---
-----------------------------------------¡-2-
--0--------0------------0--------0-------¡---
-----------------------------------------¡---

No existe razón

B?                                    xxxxxx
-----------0--------------------0----¡------
-----4-----------4--------4----------¡------
--4-----4-----4-----4--4-----4-----4-¡------
-------------------------------------¡-2--4-
--2--------2-----------2--------2----¡------
-------------------------------------¡------

Para que ya no

Dsus2               A/C#
-----------0-------¡-----------0--------
--3--3--------3----¡--2--2--------2-----
--------2--------2-¡--------2--------2--
--0--------0-------¡--------------------
-------------------¡--4--------4--------
-------------------¡--------------------

Suenen palabras

E                      Dsus2            Bsus4/Ab
--------------0-------¡--------------0-¡--------------
-----------------0----¡-----------3----¡-----------0--
-----------1--------0-¡--------2-------¡--------1-----
--------2-------------¡--4--0----------¡-----4--------
-----2----------------¡----------------¡--------------
--0-------------------¡----------------¡--0-----------

En su voz


A/D                                       xxx
-----------0---------------------0-------¡---
--0--2--------0--2------0--2--------0--2-¡---
--------2-----------2---------2----------¡---
-----------------------------------------¡-2-
--0--------0------------0--------0-------¡---
-----------------------------------------¡---
Puede tal vez

B?                                    xxxxxx
-----------0--------------------0----¡------
-----4-----------4--------4----------¡------
--4-----4-----4-----4--4-----4-----4-¡------
-------------------------------------¡-2--4-
--2--------2-----------2--------2----¡------
-------------------------------------¡------
Que en quién confió

Dsus2               A/C#
-----------0-------¡-----------0--------
--3--3--------3----¡--2--2--------2-----
--------2--------2-¡--------2--------2--
--0--------0-------¡--------------------
-------------------¡--4--------4--------
-------------------¡--------------------
Con las palabras le engañó

E                      Dsus2            Bsus4/Ab
--------------0-------¡--------------0-¡--------------
-----------------0----¡-----------3----¡-----------0--
-----------1--------0-¡--------2-------¡--------1-----
--------2-------------¡--4--0----------¡-----4--------
-----2----------------¡----------------¡--------------
--0-------------------¡----------------¡--0-----------
                            La niña a vuelto a ir


--------
CHORUS 1
--------

A/D                    E7
-----------0----------¡-----------0-----------
-----0--2-----0--2----¡-----0-----------0-----
--2-----------------2-¡--1-----1-----1-----1--
----------------------¡-----------------------
--0--------0----------¡--2--------2-----------
----------------------¡-----------------------
                       
                         No mira atrás

Dsus2                              E
-----------0--------------------0-¡----------0--
--3-----------3--------------3----¡-------0-----
-----2-----------2--------2-------¡----1--------
--0-----0--0--------0--0----------¡-2-----------
----------------------------------¡-------------
----------------------------------¡-------------

                       Al río al no escuchar

A/D                    E7
-----------0----------¡-----------0-----------
-----0--2-----0--2----¡-----0-----------0-----
--2-----------------2-¡--1-----1-----1-----1--
----------------------¡-----------------------
--0--------0----------¡--2--------2-----------
----------------------¡-----------------------

                         Ya nada más

Dsus2                              E
-----------0--------------------0-¡----------0--
--3-----------3--------------3----¡-------0-----
-----2-----------2--------2-------¡----1--------
--0-----0--0--------0--0----------¡-2-----------
----------------------------------¡-------------
----------------------------------¡-------------

                       A nadie quiere oír

------------------------------------------------------------

A/D
-----------0---------------------0-----------
--0--2--------0--2------0--2--------0--2-----
--------2-----------2---------2-----------2--
---------------------------------------------
--0--------0------------0--------0-----------
---------------------------------------------

------------------------------------------------------------

-------
VERSO 2 (Tocar lo mismo que en verso 1)
-------

Yo no sé si
Desde que calló
Le falta o sobra
La razón

Se hará comprender
Porque para hablar
Con su mirada
Bastará

No intentes comprender...


--------
Chorus 2 (Tocar lo mismo que en Chorus 1)
--------

...no puede ser
Un día volverá
A florecer
Palabras que tan...


-----------
POST-CHORUS
-----------

A/D
-----------0--
--2--0--------
--------2----- (x2)
--0----------- 
--------------
--------------

...sólo una vez

A/C#
-----------0--
--2--0--------
--------2----- (x2)
--------------
--4-----------
--------------

Las pude oír

A/B
-----------0--
--2--0--------
--------2----- (x2)
--------------
--2-----------
--------------

Sus labios hizo mover

Bsus4/Ab
--------------0------------------------0-----
-----------0-----0------------------0-----0--
--------1-----------1------------1-----------
-----4-----------------4------4--------------
---------------------------------------------
--0------------------------0-----------------


A/D
-----------0--
--2--0--------
--------2----- (x2)
--0----------- 
--------------
--------------
Y aquella vez

A/C#
-----------0--
--2--0--------
--------2----- (x2)
--------------
--4-----------
--------------
Pude entender

A/B
-----------0--
--2--0--------
--------2----- (x2)
--------------
--2-----------
--------------
Que ya no quiso crecer

Bsus4/Ab                  Dsus2        E
--------------0----------¡----------0-¡----------0--
-----------0-----0-------¡-------2----¡-------0-----
--------1-----------1----¡----3-------¡----1--------
-----4-----------------4-¡-0----------¡-2-----------
-------------------------¡------------¡-------------
--0----------------------¡------------¡-------------


-----
FINAL
-----

A/D                    E7
-----------0----------¡-----------0-----------
-----0--2-----0--2----¡-----0-----------0-----
--2-----------------2-¡--1-----1-----1-----1--
----------------------¡-----------------------
--0--------0----------¡--2--------2-----------
----------------------¡-----------------------

Dsus2                              E
-----------0--------------------0-¡----------0--
--3-----------3--------------3----¡-------0-----
-----2-----------2--------2-------¡----1--------
--0-----0--0--------0--0----------¡-2-----------
----------------------------------¡-------------
----------------------------------¡-------------

A
--------------0--
-----------2-----
--------2--------
-----2-----------
--0--------------
-----------------

------------------------------------------------------------
------------------------------------------------------------

-------------------
EL RIO DEL SILENCIO
-------------------

A    (x02220)
A/D  (x00220)
A/C# (x40220)
A/B  (x20220)
B    (x24442)
D    (xx0232)
E    (022100)


A               B
No existe razón para que ya no

D               A        E D E
Suenen palabras en su voz

A             B
Puede tal vez que en quién confió

D                A        E   D         E          A
Con las palabras le engañó... la niña a vuelto a ir

E             D         E          A
No mira atrás al río al no escuchar

E          D           E         A
Ya nada más... a nadie quiere oír


Yo no sé si
Desde que calló
Le falta o sobra
La razón

Se hará comprender
Porque para hablar
Con su mirada
Bastará

No intentes comprender...

...no puede ser
Un día volverá
A florecer
Palabras que tan...


A/D          A/C#
Sólo una vez las pude oír

A/B                  E
Sus labios hizo mover

A/D           A/C#
Y aquella vez pude entender

A/B                   E D E
porqué no quiso crecer


FINAL: A E D A

------------------------------------------------------------
------------------------------------------------------------
		   
AcordesyTabs.com © 2008 Acordes y Tablaturas para guitarra. Tabs and Chords for guitar. Aviso Legal - Contacto
El uso de este sitio está sujeto a la aceptación de los términos y condiciones (12 usuarios online)