tablaturas, partituras y acordes para guitarra
Busca por banda/artista:
 
y/o título de la canción:
A B C D E F G H I J K L M N O P Q R S T U V W X Y Z 0 1 2 3 4 5 6 7 8 9 / Top 100 tabs
Categorías
Usuarios
usuario:
Darse de alta
password:
Artistas más visitados
Publicidad
TOP acordes y tablaturas de Attaque 77


Road Rage
de Attaque 77
Puntúa este acorde/tab:      
(0.7/5)
Reportar este acorde/tab
  Añadir a tus favoritos
  Imprimir
LOS ACORDES SON    A-Fm#-D-E  durante toda la cansion

el solo es:

------------------------------------|
------------------------------------|
------------------------------------| 
------------------------------------|
0--4-7------------5--2-0-------7/9-7|
--------5^-2-0-2----------2-0-------|

ESTA PARTE ES RASGUEANDO PERO NO SE SI ESTA MUY (CORRECIONES SON BIEN RECIBIDAS)
3-1----4/--6--6--------10--10--10--10-------------|
-------3/--5--5--X5-----9---9---9---9----12/9-----|
----------------------------------------------9-11|
--------------------------------------------------|
--------------------------------------------------|
--------------------------------------------------|

-------10------------12--------------|
10∩12-----X4--12∩14----X4-----------|
-------------------------------------|
-------------------------------------|
-------------------------------------|
-------------------------------------|

EN LA 3ra ESTROFA LA GUITARRA HACE 

----------------------------------------|
----------------------------------------|
----------------------------------------|
----------------------------------------|
0--4-7------------5-2--0-------7/9-7----|
--------5^--2-0-2--------2--0-----------|

DESPUES SUBE LOS TONOS UN LUGAR MAS ARRIBA Y SERIA:
A#-Gm-D#-E  
TERMINA EN A# PERO  VA CORRIENDO LOS TONOS PARA ARRIBA 
HASTA LLEGAR A Gm


SI ALGUIEN TIENE UNA DUDA ESCRIBANME A pablo_gnr88@hotmail.com
SI ALGUIEN TIENE EL SOLO DE "BRIGADA ANTI DISTURBIOS"
ME LO PODRIA PASAR POR MAIL GRACIAS
		   
AcordesyTabs.com © 2008 Acordes y Tablaturas para guitarra. Tabs and Chords for guitar. Aviso Legal - Contacto
El uso de este sitio está sujeto a la aceptación de los términos y condiciones (32 usuarios online)