tablaturas, partituras y acordes para guitarra
Busca por banda/artista:
 
y/o título de la canción:
A B C D E F G H I J K L M N O P Q R S T U V W X Y Z 0 1 2 3 4 5 6 7 8 9 / Top 100 tabs
Categorías
Usuarios
usuario:
Darse de alta
password:
Artistas más visitados
Publicidad
TOP acordes y tablaturas de M-Clan


Estás en: Inicio > Letra M > Acordes y tablaturas de M-Clan > Maggie despierta
Maggie despierta
de M-Clan
Puntúa este acorde/tab:      
(0.3/5)
Reportar este acorde/tab
  Añadir a tus favoritos
  Imprimir
  Intro
            
  e----------3-----------0------0--------------0------------0-----------------    
  B--------------3h5--3------------3---------1---3------------3p1-------------  
  G--------------2----2-----2-------------------------------------------------  
  D-------------------------0----------3-3------------------------------------   
  A----0-3-----------------------------3-3------------3--3--------------------   
  E--3------------------------------------------------------------------------


  e-----------0--------0h1---------0------0-------------  
  B-------------3--1---3---3---1-----3----1-------------   
  G--------------------2------------------0---2--4------   
  D-----------------(0)-------------------2---2--4------   
  A----0-3--------------------------------3-------------   
  E--3--------------------------------------------------   

    

    
         SOL               FA                DO
         Vamos Maggie despierta tengo algo que decir
         SOL                   FA         DO
         llego septiembre y creo que me tengo que ir.
         FA                   DO                           SOL
         El curso ha empezado ya y mis libros no se donde están.
          REm                MIm    REm      FA                 SOL
         Oh Maggie no es el mejor final     pero se que te repondras
                 REm                SOL   REm
         y que a mi me costara mucho mas  me has destrozado
              SOL            DO
         pero yo te quiero igual.

         SOL                  FA                     DO
         Si el sol te da en la cara deja ver tu verdadera edad
         SOL                        FA            DO
         pero esto nunca me ha importado, esa es la verdad.
         FA                   DO                            SOL 
         Rompiste mi cama en dos y ahora tengo que decirte adios.
          REm            MIm      REm
         Oh Maggie liberame por favor.
         FA              SOL         REm                 SOL
         Se que te repondras y que a mi me costara mucho mas 
         REm                SOL             DO
         estoy cansado pero aun te quiero igual.


         Solo sobre ultimo verso (Rem-Sol-Do)


         SOL           FA         DO
         Creo que volvere a clase otra vez
          SOL                 FA                 DO
         o vivire tomando el sol con la herencia de papa
             FA                  DO                      SOL
         o formare una banda de rock eso es lo que hago mejor.
          REm                   MIm    REm
         Oh Maggie se que no es buen final,
         FA              SOL          REm                SOL
         se que te repondras y que a mi me costara mucho mas 
         REm                   SOL            DO
         me hiciste polvo pero yo te quiero igual.

         Segundo solo (mismos acordes)


         Ahora se toca sobre un arreglo de violin, que puede ser emulado facilmente, sobre los  
acordes DO-SOL-FA-DO, repetido varias veces. (Se puede meter algunos vibratos en el arreglo 
para apañarlo un poco más)
  

    arreglo de violin

e----------------12-13-15---15p13p12-----13--13-12----12--------------------------
B---------13--15----------------------15-----------15----13--13--------------13---  ...
G---12-14-------------------------------------------------------12h14p12h14-------
D---------------------------------------------------------------------------------


         Y para acabar:


         DO           SOL  FA             DO     DO-SOL-FA-DO
         Maggie despierta   tengo que irme ya 
         DO                 SOL       FA             DO
         Me hiciste polvo Maggie pero yo te quiero igual.

         DO-SOL-FA-DO
		   
AcordesyTabs.com © 2008 Acordes y Tablaturas para guitarra. Tabs and Chords for guitar. Aviso Legal - Contacto
El uso de este sitio está sujeto a la aceptación de los términos y condiciones (30 usuarios online)