tablaturas, partituras y acordes para guitarra
Busca por banda/artista:
 
y/o título de la canción:
A B C D E F G H I J K L M N O P Q R S T U V W X Y Z 0 1 2 3 4 5 6 7 8 9 / Top 100 tabs
Categorías
Usuarios
usuario:
Darse de alta
password:
Artistas más visitados
Publicidad
TOP acordes y tablaturas de Who


Estás en: Inicio > Letra W > Acordes y tablaturas de Who > Seeker intro
Seeker intro
de Who
Puntúa este acorde/tab:      
(0.4/5)
Reportar este acorde/tab
  Añadir a tus favoritos
  Imprimir


                    The Seeker

                        by
                      THE WHO

INTRO & CHORUS:
-------------------------------------------------------------------
-------------------------------------------------------------------
------------7----------5------5------------------------------------
---7--------7-*slide*--5------5---5--------------------------------
---7 x10----5----------3------3---5--------------------------------
---5------------------------------3--------------------------------

Reapeat through out whole song

Last bit at the end


"Till the day i die!"
-------------------------------------
-------------------------------------
----5-5------------------------------
----5-5--5-5----7--------------------
----3-3--5-5----7--------------------
---------3-3----5--------------------

By Smacky

power chords are fun!
        



		   
AcordesyTabs.com © 2008 Acordes y Tablaturas para guitarra. Tabs and Chords for guitar. Aviso Legal - Contacto
El uso de este sitio está sujeto a la aceptación de los términos y condiciones (22 usuarios online)